» » »

Matapolo Tabs (ver.1)

Artists:  A B C D E F G H I J K L M N O P Q R S T U V W X Y Z # 

Matapolo Tabs (ver.1)

BöHse Onkelz
Rating:
0/5 (0 votes)

Hard to play? Try these video lessons and learn fast.
                Riff1:
I-------------------------------------------------------
I-------------------------------------------------------
I-------------------------------------------------------
I-------------------------------------------------------
I-----11-13-14-15-14-13-11--------11-13-14-15-14-13--13-
I--13----------------------13--13-----------------------

-----------------------------------------------------I--
-----------------------------------------------------I--
-----------------------------------------------------I--
-----------------------------------------------------I--
-----11-13-14-15-14-13-11----15-14-13-14-15-14-13-14-I--
--13----------------------13-------------------------I—-





Riff2:
I---13-13-13-1313---13-13-13-16---13-13-13-1313-1313-13-
I---13-13-13-1313---13-13-13-13---13-13-13-1313-1313-13-
I-------------------------------------------------------
I-------------------------------------------------------
I-------------------------------------------------------
I-------------------------------------------------------

---13-13-13-16-161616-----------------------------------
---13-13-13-13-131313---13-13-13------------------------
---------------------------------12--15-15-1515---------
--------------------------------------------------------
--------------------------------------------------------
--------------------------------------------------------

---13-16-13------------------------13-1613-16-16-13-----
---13-13-13-13-13-13-13131313-13~--13-1313-13-13-13-----
---13-13-13-13-13-13-13131313---------------------------
--------------------------------------------------------
--------------------------------------------------------
--------------------------------------------------------


---13-1613-16-13-16-13-16-16-16-16-1313---13\--x-13\--x-
---13-1313-13-13-13-13-13-13-13-13-1313---13\-x--13\-x--
--------------------------------------------------------
--------------------------------------------------------
--------------------------------------------------------
--------------------------------------------------------

---1313-13-13-13--16-13-----1313-13---------------------
---1313-13-13-13--13----13--1313-13----13-13-1612-------
-----------13-13-----------------------12-12-1212-------
--------------------------------------------------------
--------------------------------------------------------
--------------------------------------------------------

----------------------13\----x----13-----------------I--
---11-14-11111111\----13\--x---x--13-13--------------I--
---10-10-10101010\-------------------13--1313131313\-I--
-----------------------------------------1212121212\-I--
-----------------------------------------------------I--
-----------------------------------------------------I—



Riff3:
I------------------------------I------------------------
I------------------------------I------------------------
I------------------------------I------------------------
I---15--13-15-16-15-13----15~--I------------------------
I----------------------15------I---(15-15)--------------
I------------------------------I------------------------
            
Hard to play? Try these video lessons and learn fast. | Correct




comments powered by Disqus
↑ Back to top | Tablatures and chords are parodies/interpretations of the original songs. You may use it for private study, scholarship, research or language learning purposes only