>
 >
Leiden

Leiden Guitar Tabs

BöHse Onkelz - Leiden chords, tabs, tablatures, lyrics

Guitar lessons | Add/correct | Request | Top 50 tabs Artists:  A B C D E F G H I J K L M N O P Q R S T U V W X Y Z 0-9

Leiden Guitar Tabs – BöHse Onkelz

CD, Sheet music, Poster

Do you like Leiden? Share with your friends now
Tabs
INTRO: /   clean/delay   \     /   verzerrt   \  3X
e --------------------------------------------------
B --------------------------------------------------
G -----------------------------2--------------------
D -------0-2-3-------0-2-------2--2-2-2-2-2-2-2-----
A -------------0-2-3-----------0--0-0-0-0-0-0-0-----
E --------------------------------------------------
                                  p.m..........

e --------------------------------------------------
B --------------------------------------delay-------
G -------7-9-10--------7-9-----2--(-2---2---2---2-)-
D --------------7-9-10---------2--(-2---2---2---2-)-
A -----------------------------0--(-0---0---0---0-)-
E --------------------------------------------------


RIFF 1                  3X
e -------------------------I-------------------------
B -------------------------I-------------------------
G -------------------------I-------------------------
D --2------------2h3p2h3p2-I-2------------0p2p3------
A --2--2-2-2-2-2-----------I-2--2-2-2-2-2-------0p2p3
E --0--0-0-0-0-0-----------I-0--0-0-0-0-0------------
       p.m......                p.m......



VERSE:
e --------------------------------------------------
B --------------------------------------------------
G --------------------------------------------------
D --2---------------2-2---------2h3p2h3--2h3p2h3----
A --2--2-2-2-2-2-2--2-2--2-2-2----------------------
E --0--0-0-0-0-0-0--0-0--0-0-0----------------------
       p.m........       .....


e --------------------------------------------------
B --------------------------------------------------
G ------------------------------9h10p9p10—9h10p9h10-                 D --2---------------2-2-----------------------------
A --2--2-2-2-2-2-2--2-2--2-2-2----------------------
E --0--0-0-0-0-0-0--0-0--0-0-0----------------------
       p.m........       .....

e --------------------------------------------------
B --------------------------------------------------
G --------------------------------------------------
D --2---------------2-2---------2h3p2h3--2h3p2h3----
A --2--2-2-2-2-2-2--2-2--2-2-2----------------------
E --0--0-0-0-0-0-0--0-0--0-0-0----------------------
       p.m........       .....

e --------------------------------------------------
B --------------------------------------------------
G --------------------------------------------------
D --2---------------2-2---------3-2-----------------
A --2--2-2-2-2-2-2--2-2--2-2-2-------3-2------------
E --0--0-0-0-0-0-0--0-0--0-0-0----------------------
       p.m........       .....

ÜBERGANG ZUM CHORUS:                                                
e --------------------------------------------------
B --------------------------------------------------
G --------------------------------------------------
D --5-/-4-------4-------4-----4--2--3-------5-/-4---
A --5-/-4--4-4--4--4-4--4--4--4--2--3-------5-/-4---
E --3-/-2--2-2--2--2-2--2--2--2--0--1--0-0--3-/-2---
           p.m.    ...     .           ...

e --------------------------------------------------
B --------------------------------------------------
G --------------------------------------------------
D -------4-------4-----4----------------------------
A --4-4--4--4-4--4--4--4---3-2----------------------
E --2-2--2--2-2--2--2--2-------3-2------------------
    p.m.    ...     .


CHORUS:                                          4X
e --------------------------------------------------
B --------------------------------------------------
G ------4-----5-----7-7-----------------------------
D ------4-----5-----7-7----5--4---------------------
A ------2-----3-----5-5----3--2--5--5---------------
E --000---0-0---0-0--------------3--2---------------
    p.m.  ...   ...


RIFF 2               3x
e -I--------------------I-----------------------------------
B -I--------------------I-----------------------------------
G -I--------------------I-----------------------------------
D -I-2------------------I-2---------------------------------
A -I-2------------------I-2-----------------222-333---------
E –I-0--0-00-0-0--0p2p3-I-0--0-00-0-0-0p2p3---------222-333-
        p.m.....            p.m......
RIFF 3                                           4X
e --------------------------------------------------
B --------------------------------------------------
G --9-8-------9-8-------9-8-------------------------
D --------------------------------------------------
A --7-6-------7-6-------7-6----2-2-0h2h3-3-3--------
E -------0-0-------0-0------------------------------
         p.m.      p.m.
         





ÜBERGANG ZUM SOLO:                              4X
e --------------------------------------------------
B ----------10-9------------------------------------
G -----9---------9---7---7-5-7--5-4-------5-4---7---
D –7p9---9---------9---9----------------------------
A ------------------------------3-2-------3-2---5---
E -----------------------------------0-0------------
                                     p.m.





SOLO:
e --12h14h15-15p14p12-15p14p12-15p14p12-15p14p12-usw.
B --------------------------------------------------
G --------------------------------------------------
D --------------------------------------------------
A --------------------------------------------------
E --------------------------------------------------


e –-15-17-15--12-12-12-12--15-17-15--12-12-12-12----                                                      B---------------------------------------------------
G --------------------------------------------------
D --------------------------------------------------
A --------------------------------------------------
E --------------------------------------------------


    ///TREMOLO PICKING\\\
e –-12--14--15--17--15--14---12---------------------
B -------------------------------15--12-------------
G ---------------------------------------14---------
D --------------------------------------------------
A --------------------------------------------------
E --------------------------------------------------

e –-------------------------------------------------
B –-12h15p12--12h15p12--12h15p12--12h15p12--usw.----
G ----------14--------14-------14-------------------
D --------------------------------------------------
A --------------------------------------------------
E --------------------------------------------------


                            ¼   ¼  ¼ 
e –----------------------------------------------12-
B –-12h15p12----12----------------------12h14h15----
G -----------14----14-12----12--12-12---------------
D -----------------------14-------------------------
A --------------------------------------------------
E --------------------------------------------------


e –-15p12-15p12-15p12-15p12-15p12-15p12-15p12-15p12-
B --------------------------------------------------
G --------------------------------------------------
D --------------------------------------------------
A --------------------------------------------------
E --------------------------------------------------

                  
e –-17p12-------------------------------------------
B --------15-----15p12----12------------------------
G -----------14b-------14----14--12--14b---(14b)~---                       D --------------------------------------------------
A --------------------------------------------------
E --------------------------------------------------


1.INTRO                      RIFF 2
  RIFF 1                     RIFF 3 
  VERSE                      ÜBERGANG ZUM SOLO
  ÜBERGANG ZUM CHORUS        SOLO
  CHORUS                     RIFF 3
  RIFF 2                     RIFF 1
  RIFF 1                     VERSE
  VERSE                      ÜBERGANG ZUM CHORUS
  ÜBERGANG ZUM CHORUS        RIFF 2
  CHORUS                     SCHLUSS

DER SCHLUSS:           3X
e –I----------------------I-------------------------
B -I----------------------I-------------------------
G -I----------------------I------------------9\-----
D -I----------------------I----2-------------9\-----
A -I--333--222------------I----2--2-2-2-2----7\-----
E -I------------333--222--I----0--0-0-0-0-----------
                                  p.m....





Comments


Popular BöHse Onkelz tabs & chords
Koma Bass Tabs
1000 Fragen Tabs
Deutschland Tabs
Die Firma Tabs
Eine Botschaft FüR Paranoide Tabs
Es 1 Tabs
Keine Ist Wie Du Tabs
Matapolo Tabs
Nekrophil Tabs
Nie Wieder Tabs


Song lyrics



↑ Back to top | Tablatures and chords are parodies/interpretations of the original songs. You may use it for private study, scholarship, research or language learning purposes only
© 2014 AZChords.com Contact us | Privacy policy | DMCA | Add/correct tabs | Request tabs | Top 50 tabs