» » »

BöHse Onkelz, Es Tabs (ver.1)

Artists:  A B C D E F G H I J K L M N O P Q R S T U V W X Y Z # 

Es Tabs (ver.1)

BöHse Onkelz Tabs
 Rating:
4/5 (4 votes)
Es lessons Tabs too difficult? Try these video lessons and learn fast
1
                INTRO:              Gitarre 1
e ---------------------------------------------------
B ---------------------------------------------------
G -----9-----8--7------------9-----7h8p7h8p7h8p7-----
D --------7--------8------------7--------------------
A --7---------------------7--------------------------
E ---------------------------------------------------           

e ---------------------------------------------------
B ---------------------------------------------------
G -----9-----8--7---------10--9---------12--11-------
D --------7--------8-------------10-------------12---
A --7------------------------------------------------
E ---------------------------------------------------           

                                 Gitarre 2   (ab 00:07 u. 00:20)
e ---------------------------------------------------
B ---------------------------------------------------
G ---------------------------------------------------
D -----10-----9--7------------10-----8h9p8h9p8h9p8---
A ---------8--------9-------------8------------------
E --8----------------------8-------------------------           

e ---------------------------------------------------
B ---------------------------------------------------
G ---------------------------------------------------
D -----10-----9--7-----11--10---------13--12---------
A ---------8--------9----------11-------------12-----
E --8------------------------------------------------           
 
 

                                    2x
e -----------------------I---------------------------
B -----------------------I---------------------------
G -----9----8---8---8----I-------9----8---8---8------
D --------7---7---7------I----------7---7-----7------
A --7--------------------I----7---------------6------
E -----------------------I---------------------------  
       


VERSE:
e ---------------------------------------------------
B ---------------------------------------------------
G ---------------------------------------------------
D --/-2---------8-7-8-7------2---------4-5-----------
A --/-2--2-2-2--8-7-8-7------2--2-2-2--4-5-----------
E --/-0--0-0-0--6-5-6-5------0--0-0-0--2-3----------- 
                    p.m..                  p.m..          

e ---------------------------------------------------
B ---------------------------------------------------
G ---------------------------------------------------
D --2---------8-7-8-7------4-5-5-5-5-5--5-4-4-4-4-4--
A --2--2-2-2--8-7-8-7------4-5-5-5-5-5--5-4-4-4-4-4--
E --0--0-0-0--6-5-6-5------2/3-3-3-3-3--3\2-2-2-2-2--         
       p.m..                 p.m......    .........



CHORUS:
e ---------------------------------------------------
B ---------------------------------------------------
G ---------------------------------------------------
D –-10--10--10---9--9--9---5--5--5--5--4--5----------
A --8---8---8----7--7--7---3--3--3--3--2--3----------
E ---------------------------------------------------           
    p.m......    .......   ................

e ---------------------------------------------------
B ---------------------------------------------------
G ---------------------------------------------------
D --8-8-8-8-8-8-8-8-8-8-8-8--9-9-9-9-9-9-9-9-9-9-9-9-                              A --6-6-6-6-6-6-6-6-6-6-6-6--7-7-7-7-7-7-7-7-7-7-7-7-
E ---------------------------------------------------           
    p.m....................  .......................


RUHIGER TEIL:                            (ab 02:18)
e ---------------------------------------------------
B ------0---1---0------------0---1---0---------------
G --------2---2---2------------2---2---2-----u.s.w.--
D ----2--------------------2-------------------------
A --0--------------------0---------------------------
E ---------------------------------------------------           


Ab 02:22 setz die zweite Gitarre ein, sie spielt:

A – D# - E(7Bund) – A – A – D# - E(7) – A 

Alles abgedämpft (p.m.) spielen!!!

ÜBERGANG ZUM SOLO:
e ---------------------------------------------------
B ---------------------------------------------------
G ---------------------------------------------------
D ----------11-10-11-----------11--------------------
A --9--9----9--8--9----9--9----9----4--5-------------
E --7--7---------------7--7---------2--3-------------       

e ---------------------------------------------------
B ---------------------------------------------------
G -------------------------------10-----------9------
D ----------11-10-11--------10------------9----------
A --9--9----9--8--9-------8----8--------7---7--------
E --7--7---------------------------------------------          

 






 

SOLO:  2x            ! Tapping !
e ---------------------------------------------------
B –-t12p8p5—t12p8p5-t12p8p5-t12p8p5-t12p8p5-t12p8p5--
G ---------------------------------------------------
D ---------------------------------------------------
A ---------------------------------------------------
E ---------------------------------------------------
                   > wechsel
e ---------------------------------------------------
B –-t12p8p5-t12p8p5--t12p7p4-t12p7p4-t12p7p4-t12p7p4-
G ---------------------------------------------------
D ---------------------------------------------------
A ---------------------------------------------------
E ---------------------------------------------------
                                                         w
e –--------------------------------------------------
B –-t11p7p4-t12p7p4-t12p7p4-t12p7p4--t11p6p3-t11p6p3-
G ---------------------------------------------------
D ---------------------------------------------------
A ---------------------------------------------------
E ---------------------------------------------------
                                                   w
e ---------------------------------------------------
B –-t11p6p3-t11p6p3-t11p6p3-t11p6p3-t11p6p3-t11p6p3--
G ---------------------------------------------------
D ---------------------------------------------------
A ---------------------------------------------------
E ---------------------------------------------------  
                                   w
e –-t10p6p3-t10p6p3-t10p6p3-t10p6p3--t10p5p2-t10p5p2-
B ---------------------------------------------------
G ---------------------------------------------------
D ---------------------------------------------------
A ---------------------------------------------------
E ---------------------------------------------------           


e –-t10p5p2-t10p5p2----------------------------------
B ---------------------------------------------------
G ------------------------------Und weil`s so--------
D ------------------------------schön war gleich-----
A ------------------------------noch einmal!!!!------
E ---------------------------------------------------   


INTRO
VERSE       
CHORUS
VERSE
CHORUS
RUHIGER TEIL
ÜBERGANG ZUM SOLO
SOLO
CHORUS
VERSE
CHORUS
SCHLUSS


SCHLUSS
e ---------------------------------------------------
B ---------------------------------------------------
G -----9-----8--7------10--9------12--11-------------
D --------7--------8----------10----------12----2----
A --7-------------------------------------------2----
E ----------------------------------------------0----  


Fertig! Wenn ihr fragen zu dem Tab habt oder so was
            
Submit corrections

comments powered by Disqus
↑ Back to top | BöHse Onkelz Tabs for Es. Lyrics for acoustic guitar and electric guitar. 1 Tablatures and chords are parodies/interpretations of the original songs. You may use it for private study, scholarship, research or language learning purposes only