» » »

BöHse Onkelz, Die Firma Tabs (ver.1)

Artists:  A B C D E F G H I J K L M N O P Q R S T U V W X Y Z # 

Die Firma Tabs (ver.1)

BöHse Onkelz Tabs
Rating:
0/5 (0 votes)
Die Firma lessons Tabs too difficult? Try these video lessons and learn fast
                

Intro:

E|------------|------------|------------|------------|
H|------------|------------|------------|------------|
G|------------|------------|------------|-6--6-6-6-6-|
D|------------|-9--9-9-9-9-|-4--4-4-4-4-|-4--4-4-4-4-| 
A|-6--6-6-6-6-|-7--7-7-7-7-|-2--2-2-2-2-|------------|
E|-4--4-4-4-4-|------------|------------|------------|

Verse: (P.M.)

E|-----------------|-----------------|-----------------|------------|
H|-----------------|-----------------|-----------------|------------|
G|-----------------|-----------------|-----------------|------------|
D|-----------------|-9-9-9-9-9-9-9-9-|-6-6-6-6-6-6-6-6-|-6-...------|
A|-6-6-6-6-6-6-6-6-|-7-7-7-7-7-7-7-7-|-4-4-4-4-4-4-4-4-|-4-...------|
E|-4-4-4-4-4-4-4-4-|-----------------|-----------------|------------|

Bridge:
E|------------------|
H|------------------|
G|------------------|
D|------9-9-6-6-----|
A|-6-6--7-7-4-4-6-6-|
E|-4-4----------4-4-|

Chorus:
E|------------|------------|------------|------------|
H|------------|------------|------------|------------|
G|------------|------------|------------|-6...-------|
D|------------|-9...-------|-4...-------|-4...-------|
A|-6...-------|-7...-------|-2...-------|------------|
E|-4...-------|------------|------------|------------|
            

comments powered by Disqus
↑ Back to top | BöHse Onkelz Tabs for Die Firma. Lyrics for acoustic guitar and electric guitar. Tablatures and chords are parodies/interpretations of the original songs. You may use it for private study, scholarship, research or language learning purposes only