» » »

Das Wunder Der PersöNlichkeit Tabs (ver.1)

Artists:  A B C D E F G H I J K L M N O P Q R S T U V W X Y Z # 

Das Wunder Der PersöNlichkeit Tabs (ver.1)

BöHse Onkelz
Rating:
0/5 (0 votes)

Tabs too difficult? Try these video lessons and learn fast.
                INTRO:      Bass
G ------------------------
D ------------------------
A ------------------------
E --0-0----0-3-2--0-0-----


CHORUS:                Gitarre 1
e -------I--------------------------------------------
B -------I--------------------------------------------
G -------I--------------------------------------------
D -------I--------5-4-----5-4-----5-4--2--5-4---------
A -------I--------5-4-----5-4-----5-4--2--5-4---------
E –-10/--I---0-0--3-2--0--3-2--0--3-2--0--3-2---------
            p.m.       .       .       ......

                      Gitarre 2      Das 1. mal ab <00:36>   
e ----------------------------------------------------
B ----------------------------------------------------
G ----------------------------------------------------
D --2----------5-----------4-----------7--------------
A --2----------5-----------4-----------7--------------
E --0----------3-----------2-----------5--------------


ÜBERGANG:
e ----------------------------------------------------
B ----------------------------------------------------
G ----------------------------------------------------
D --2-2----------2-2----------2-2----------2-2--------
A --2-2----------2-2----------2-2----------2-2--------
E --0-0----------0-0----------0-0----------0-0--------
   p.m.          ...          ...          ...



VERSE:
  __________let ring_________  2x                    1x
e --------3---------3--2-------I----------------------
B –-0p1-------0p1---------3----I---0-0~--------0-0~---
G -----------------------------I---2/3~--------2/3~---
D -----------------------------I----------------------
A -----------------------------I----------------------
E -----------------------------I----------------------


  _________let ring__________  2x                    2x
e -------3---------3--2--------I----------------------
B --0p1-------0p1---------3----I---0-0~--------0-0~---
G -----------------------------I---2/3~--------2/3~---
D -----------------------------I----------------------
A -----------------------------I----------------------
E -----------------------------I----------------------




SOLO:                 (Teilweise mit Wah wah)
e ----------------------------------------------------
B ----------------------------------------------------
G ----------------------------------------------------
D –0h2p0h2p0h2p0h2p0h2p0h2p0h2p0-usw.--leichtes feedback---
A ----------------------------------------------------
E ---------------------------------------------------- 

                                                                                   e ----------------------------------------------------
B -------15-15----------------------------------------
G --14b-----14b---14p12-------------------------------
D ---------------------14--14p12----------------------
A ------------------------------14--14p12----12\10----
E ---------------------------------------15--------12-


e ----------------------------------------------------
B ----------------------------------------------------
G ----------------------------------------------------
D ------------/17-14~~---------7b--7br--5---------7b--
A --------12-------------------------------7-5-7------
E --12/15---------------------------------------------


e ----------------------------------------------------
B ----------------------------------------------------
G ----------------------------------------------------
D –-7br--5~-------7b--7br--5---------7b--7br--5~------                
A ----------------------------7-5-7-------------------
E ---------------------------------------------------- 
                                           
   ______________________let ring_______________________
e --------3---------3--2-------------3---------3--2---
B –-0p1-------0p1---------3----0p1-------0p1---------3
G ----------------------------------------------------
D ----------------------------------------------------
A ----------------------------------------------------
E ----------------------------------------------------




e –-14p12-14p12-14p12-usw.----------------------------
B ----------------------------12h15p12h15p12h15p12----
G ----------------------------------------------------
D ----------------------------------------------------
A ----------------------------------------------------
E ----------------------------------------------------



e ----------------------------------------------------
B ------------------x-x-12-12-------------------------
G ------------------x-x-12-12-------------------------
D --7b-7-7b-5-----------------14p12-14~~~-------------
A ------------7~--------------------------------------
E ----------------------------------------------------


   ______________________let ring_______________________
e --------3---------3--2-------------3---------3--2---
B –-0p1-------0p1---------3----0p1-------0p1---------3
G ----------------------------------------------------
D ----------------------------------------------------
A ----------------------------------------------------
E ----------------------------------------------------


e ----------------------------------------------------
B ----------------------------------------------------
G ----------------------------------------------------
D –-0h2p0h2p0h2p0h2p0h2p0h2p0h2p0-usw.----------------
A –---------------------------------------------------
E ----------------------------------------------------


e ------------------------------------------------12--
B –-12\----15--15------------------------------12-12--
G –-12\----14b-14--12----12--14b---------12/14--------
D --------------------14------------------------------
A ----------------------------------------------------
E ----------------------------------------------------


                                           ¼ 
e ----------------------------------------------------
B –-15p12-15b~---15-12--------------------------------
G ---------------------14-12--14br-p12-12-12b---------
D --------------------------------------------14-12-14
A ----------------------------------------------------
E ----------------------------------------------------

                                      ¼ 
e ----------------------------------------------------
B ---------------15-----------------------------------
G --14-12-14-14b------12h14p12----14-12b--------------
D -----------------------------14--------14~----------
A ----------------------------------------------------
E ----------------------------------------------------



INTRO
CHORUS
ÜBERGANG
VERSE
CHORUS
ÜBERGANG
VERSE
CHORUS
ÜBERGANG
SOLO
CHORUS



Das timing müsst ihr selbst herausfinden! Dennoch
            
Tabs too difficult? Try these video lessons and learn fast.


comments powered by Disqus
↑ Back to top | Tablatures and chords are parodies/interpretations of the original songs. You may use it for private study, scholarship, research or language learning purposes only