» » »

BöHse Onkelz, Ausrufezeichen Tabs (ver.1)

Artists:  A B C D E F G H I J K L M N O P Q R S T U V W X Y Z # 

Ausrufezeichen Tabs (ver.1)

BöHse Onkelz Tabs
Rating:
0/5 (0 votes)
Ausrufezeichen lessons Tabs too difficult? Try these video lessons and learn fast
                Mit einem Finger der Linken Hand Flagolet Töne erzeugen
und auf dem Griffbrett nach oben sliden ( Die Saiten nicht drücken!!)

Intro:
e ---------------------------------------------------
B ---------------------------------------------------
G -----------------------------/Whammy\down--/W.\up--
D --/--    Harmonics     --\---2-------------2-------
A –-000111222333444555666777---0-------------0-------
E ---------------------------------------------------

Hauptriff:
e ---------------------------------------------------
B ---------------------------------------------------
G ---------------------------------------------------
D ----------7-8-7-------------7-10-9-----------------
A ----------7-8-7-------------7-10-9-----------------
E --5555555-5-6-5-----5555555-5-8--7-----------------

e ---------------------------------------------------
B ---------------------------------------------------
G ---------------------------------------------------
D ----------7-8-7---10-9-10-12-10-12-----------------
A ----------7-8-7---10-9-10-12-10-12-----------------
E –-5555555-5-6-5---8--7-8--10-8--10-----------------



Das ist erst mal das Wichtigste!!
            
Submit corrections

comments powered by Disqus
↑ Back to top | BöHse Onkelz Tabs for Ausrufezeichen. Lyrics for acoustic guitar and electric guitar. Tablatures and chords are parodies/interpretations of the original songs. You may use it for private study, scholarship, research or language learning purposes only