» » »

BöHse Onkelz, 1000 Fragen Tabs (ver.1)

Artists:  A B C D E F G H I J K L M N O P Q R S T U V W X Y Z # 

1000 Fragen Tabs (ver.1)

BöHse Onkelz Tabs
Rating:
0/5 (0 votes)
Hard to play? Try these video lessons and learn fast.
                INTRO:(RIFF 1)
e ---------------------------------------------------
B ---------------------------------------------------
G ---------------------------------------------------
D ---------------------------------------------------
A ----------------2------2-------------5--4----------
E –-12\---0--0-------3------2----2--0--3--2----------



VERSE:
e ---------------------------------------------------
B -------12--12-X-12---12--12-X-11/12-12--11/12-12---
G -------12--12-X-12---12--12-X-11/12-12--11/12-12---
D -------12--12-X-12---12--12-X-11/12-12--11/12-12---
A ---------------------------------------------------
E --0-0----------------------------------------------

e ---------------------------------------------------
B -------12--12-X-12---12--12------------------------
G -------12--12-X-12---12--12----14b-14b--14p12------
D -------12--12-X-12---12--12-------------------14---
A ---------------------------------------------------
E --0-0----------------------------------------------




CHORUS:              Gitarre 1
e ---------------------------------------------------
B ---------------------------------------------------
G ---------------------------------------------------
D --5-----5-----7-----7-----9-----9-----7-----7------
A -----7-----7-----7-----7-----7-----7-----7-----7---
E ---------------------------------------------------

                     Gitarre 2
e ---------------------------------------------------
B ---------------------------------------------------
G -------------5----------7----------4---------------
D --2----------5----------7----------4---------------
A --2----------3----------5----------2---------------
E --0------------------------------------------------


INTRO
VERSE
CHORUS
RIFF 1
VERSE
CHORUS
RIFF 1
SOLO
CHORUS
RIFF 1
ORGEL SOLO 
SCHLUSS SOLO
RIFF 1



Das Solo kommt vielleicht noch!(Es ist zum größten
teil in der E Pentatonik ab dem 12. Bund gespielt!!!)
            

comments powered by Disqus
↑ Back to top | BöHse Onkelz Tabs for 1000 Fragen. Lyrics for acoustic guitar and electric guitar. Tablatures and chords are parodies/interpretations of the original songs. You may use it for private study, scholarship, research or language learning purposes only