>
 >
Selkies The Endless Obsession

Selkies The Endless Obsession Guitar Tabs

Between The Buried And Me - Selkies The Endless Obsession chords, tabs, tablatures, lyrics

Guitar lessons | Add/correct | Request | Top 50 tabs Artists:  A B C D E F G H I J K L M N O P Q R S T U V W X Y Z 0-9

Selkies The Endless Obsession Guitar Tabs – Between The Buried And Me

CD, Sheet music, Poster

Do you like Selkies The Endless Obsession? Share with your friends now
Bass TabsBass Tabs v2TabsTabs v3Tabs v4Tabs v5
right....the lead guitar is at the top of the score and the ryhthm/harmony is at the bottom of the tab :)






paul lead
                                                          
C#||------|------|------|------|-------------------------|
G#||------|------|------|------|-------------------------|
E ||------|------|------|------|-------------------------|
B ||------|------|------|------|--------9-----10---------|
F#||------|------|------|------|--0--7-----7------10--7--|
C#||------|------|------|------|-------------------------|


                                                                              
-------------------------|-------------------------|-------------------------|
-------------------------|-------------------------|-------------------------|
-------------------------|-------------------------|-------------------------|
--------9-----10---------|--------9-----10---------|--------9-----10---------|
--0--7-----7------10--7--|--0--7-----7------10--7--|--0--7-----7------10--7--|
-------------------------|-------------------------|-------------------------|


                                                    
-------------------------|-------------------------|
-------------------------|-------------------------|
-------------------------|-------------------------|
--------9-----10---------|--------9-----10---------|
--0--7-----7------10--7--|--0--7-----7------10--7--|
-------------------------|-------------------------|


                                                                          
-------------------------------------------------|-----------------------|
-------------------------------------------------|-----------------------|
--7--------------0----------------------------7--|--9-----7-----5--------|
-----7--------4----------------7--10----9--------|-----7-----7-----7--5--|
--------9--5--------3-------7--------------7-----|-----------------------|
-----------------------1-------------------------|-----------------------|


                                                                    
--------------------|----------------------------------------------|
--------------------|----------------------------------------------|
--9-----7-----5-----|--9-----7-----5--------9----------------------|
-----7-----7-----7--|-----7-----7-----7--5-----7-----7--10--9------|
--------------------|-----------------------------7------------10--|
--------------------|----------------------------------------------|


                                                                           
------------------------|------------------------|------------------------|
------------------------|------------------------|------------------------|
--------7-----9--7------|--------7-----9--7------|--------7-----9--7------|
-----7-----7--------10--|-----7-----7--------10--|-----7-----7--------10--|
--0---------------------|--0---------------------|--0---------------------|
------------------------|------------------------|------------------------|


                                                                           
------------------------|------------------------|------------------------|
------------------------|--------8-----10--8-----|--------8-----10--8-----|
--------7-----9--7------|-----9-----9---------9--|-----9-----9---------9--|
-----7-----7--------10--|--7---------------------|--7---------------------|
--0---------------------|------------------------|------------------------|
------------------------|------------------------|------------------------|


                                                        
--10-------------------8-------------------------------|
------10---------7--8-----6-------10--13----12---------|
----------11--7----------------9----------------9--12--|
-------------------------------------------------------|
-------------------------------------------------------|
-------------------------------------------------------|


                                                          
------------------------------|--------------------------|
------------------------------|--------------------------|
--16------14------12----------|--16------14------12------|
------14------14------14--12--|------14------14------14--|
------------------------------|--------------------------|
------------------------------|--------------------------|


                                                                  
------------------------------|----------------------------------|
------------------------------|----------------------------------|
--16------14------12----------|--16--------------14------12------|
------14------14------14--12--|------14--12--14------14------14--|
------------------------------|----------------------------------|
------------------------------|----------------------------------|


                                                          
------------------------------|--------------------------|
------------------------------|--------------------------|
--16------14------12----------|--16------14------12------|
------14------14------14--12--|------14------14------14--|
------------------------------|--------------------------|
------------------------------|--------------------------|


                                                          
------------------------------|--------------------------|
------------------------------|--------------------------|
--16------14------12----------|--16--------------12--16--|
------14------14------14--12--|------14--12--14----------|
------------------------------|--------------------------|
------------------------------|--------------------------|


                                                          
------------------------------|--------------------------|
------------------------------|--------------------------|
--15------14------12----------|--15------14------12------|
------13------13------13--12--|------13------13------13--|
------------------------------|--------------------------|
------------------------------|--------------------------|


                                                          
------------------------------|--------------------------|
------------------------------|--------------------------|
--15------14------12----------|--15------14------12------|
------13------13------13--12--|------13------13------13--|
------------------------------|--------------------------|
------------------------------|--------------------------|


                                                          
------------------------------|--------------------------|
------------------------------|--------------------------|
--16------14------12----------|--16------14------12------|
------14------14------14--12--|------14------14------14--|
------------------------------|--------------------------|
------------------------------|--------------------------|


                                                                  
------------------------------|----------------------------------|
------------------------------|----------------------------------|
--16------14------12----------|--16--------------14------12------|
------14------14------14--12--|------14--12--14------14------14--|
------------------------------|----------------------------------|
------------------------------|----------------------------------|


                                              
---------------------------------------------|
---------------------------------------------|
---------------------------------------------|
--12--9------7-------------------------------|
---------10-----7--5--6--7-------------2--3--|
------------------------------2--3--4--------|


                                           
------------------------------------------|
------------------------------------------|
------------------------------------------|
------------------------------------------|
--4-----2-----0--------4----2----0--------|
-----2-----2-----2--0---------------2--0--|


                                             
--------------------------------------------|
--------------------------------------------|
--------------------------------------------|
--------------------------------------------|
--4-----2-----0--------4-----------2--3--4--|
-----2-----2-----2--0-----2--3--4-----------|


                                           
------------------------------------------|
------------------------------------------|
------------------------------------------|
------------------------------------------|
--5-----3-----1--------5----3----1--------|
-----3-----3-----3--1---------------3--1--|


                                                                        
--------------------------------------------|--------------------------|
--------------------------------------------|--------------------------|
--------------------------------------------|--------------2-----------|
--------------------------------------------|--------4--1-----4--1--0--|
--5-----3-----1--------5-----------3--4--5--|--6--3--------------------|
-----3-----3-----3--1-----3--4--5-----------|--------------------------|


                                           
------------------------------------------|
------------------------------------------|
------------------------------------------|
------------------------------------------|
--4-----2-----0--------4----2----0--------|
-----2-----2-----2--0---------------2--0--|


                                             
--------------------------------------------|
--------------------------------------------|
--------------------------------------------|
--------------------------------------------|
--4-----2-----0--------4-----------2--3--4--|
-----2-----2-----2--0-----2--3--4-----------|


                                           
------------------------------------------|
------------------------------------------|
------------------------------------------|
------------------------------------------|
--5-----3-----1--------5----3----1--------|
-----3-----3-----3--1---------------3--1--|


                                             
--------------------------------------------|
--------------------------------------------|
--------------------------------------------|
--------------------------------------------|
--5-----3-----1--------5-----------3--4--5--|
-----3-----3-----3--1-----3--4--5-----------|


                                             
-----------------------------------2--------|
-----------------------1-----4--1-----4--1--|
--------------2-----------2-----------------|
--------4--1-----4--1-----------------------|
--6--3--------------------------------------|
--------------------------------------------|


                                             
--------------------------------------------|
--4--1--------1-----------------------------|
--------2--------2-----------------2--------|
-----------4--------4--1-----4--1-----4--1--|
--------------------------3-----------------|
--------------------------------------------|



DUSTY guitar 2

dusty
                                                          
C#||------|------|------|------|-------------------------|
G#||------|------|------|------|-------------------------|
E ||------|------|------|------|-------------------------|
B ||------|------|------|------|--------9-----10---------|
F#||------|------|------|------|--0--7-----7------10--7--|
C#||------|------|------|------|-------------------------|


                                                                              
-------------------------|-------------------------|-------------------------|
-------------------------|-------------------------|-------------------------|
-------------------------|-------------------------|-------------------------|
--------9-----10---------|--------9-----10---------|--------9-----10---------|
--0--7-----7------10--7--|--0--7-----7------10--7--|--0--7-----7------10--7--|
-------------------------|-------------------------|-------------------------|


                                                    
-------------------------|-------------------------|
-------------------------|-------------------------|
-------------------------|-------------------------|
--------9-----10---------|--------9-----10---------|
--0--7-----7------10--7--|--0--7-----7------10--7--|
-------------------------|-------------------------|


                                                                          
-------------------------------------------------|-----------------------|
-------------------------------------------------|-----------------------|
--7--------------0----------------------------7--|--9-----7-----5--------|
-----7--------4----------------7--10----9--------|-----7-----7-----7--5--|
--------9--5--------3-------7--------------7-----|-----------------------|
-----------------------1-------------------------|-----------------------|


                                                                    
--------------------|----------------------------------------------|
--------------------|----------------------------------------------|
--9-----7-----5-----|--9-----7-----5--------9----------------------|
-----7-----7-----7--|-----7-----7-----7--5-----7-----7--10--9------|
--------------------|-----------------------------7------------10--|
--------------------|----------------------------------------------|


                                                                              
-------------------------|-------------------------|-------------------------|
-------------------------|-------------------------|-------------------------|
-------------------------|-------------------------|-------------------------|
--------9-----10---------|--------9-----10---------|--------9-----10---------|
--0--7-----7------10--7--|--0--7-----7------10--7--|--0--7-----7------10--7--|
-------------------------|-------------------------|-------------------------|


                                                                              
-------------------------|-------------------------|-------------------------|
-------------------------|-------------------------|-------------------------|
-------------------------|-------------------------|-------------------------|
--------9-----10---------|--------9-----10---------|--------9-----10---------|
--0--7-----7------10--7--|--0--7-----7------10--7--|--0--7-----7------10--7--|
-------------------------|-------------------------|-------------------------|


                                                                          
-------------------------------------------------|-----------------------|
-------------------------------------------------|-----------------------|
--7--------------0----------------------------7--|--9-----7-----5--------|
-----7--------4----------------7--10----9--------|-----7-----7-----7--5--|
--------9--5--------3-------7--------------7-----|-----------------------|
-----------------------1-------------------------|-----------------------|


                                                                        
--------------------|-----------------------|--------------------------|
--------------------|-----------------------|--------------------------|
--9-----7-----5-----|--9-----7-----5--------|--9-----------9-----7-----|
-----7-----7-----7--|-----7-----7-----7--5--|-----7--5--7-----7-----7--|
--------------------|-----------------------|--------------------------|
--------------------|-----------------------|--------------------------|


                                                                     
-----------------------|--------------------|-----------------------|
-----------------------|--------------------|-----------------------|
--9-----7-----5--------|--9-----7-----5-----|--9-----7-----5--------|
-----7-----7-----7--5--|-----7-----7-----7--|-----7-----7-----7--5--|
-----------------------|--------------------|-----------------------|
-----------------------|--------------------|-----------------------|


                                                                             
---------------------|----------------------------|-------------------------|
---------------------|----------------------------|-------------------------|
--9---------------9--|--12------10------8---------|--12------10------8------|
-----7--5--7--10-----|------10------10-----10--8--|------10------10-----10--|
---------------------|----------------------------|-------------------------|
---------------------|----------------------------|-------------------------|


                                                                               
----------------------------|-------------------------|-----------------------|
----------------------------|-------------------------|-----------------------|
--12------10------8---------|--12------10------8------|--9-----7-----5--------|
------10------10-----10--8--|------10------10-----10--|-----7-----7-----7--5--|
----------------------------|-------------------------|-----------------------|
----------------------------|-------------------------|-----------------------|


                                                                        
--------------------|-----------------------|--------------------------|
--------------------|-----------------------|--------------------------|
--9-----7-----5-----|--9-----7-----5--------|--9-----------9-----7-----|
-----7-----7-----7--|-----7-----7-----7--5--|-----7--5--7-----7-----7--|
--------------------|-----------------------|--------------------------|
--------------------|-----------------------|--------------------------|


                                            
-------------------------------------------|
-------------------------------------------|
-------------------------------------------|
--5----------------------------------------|
-----7--3--5--2-----2--0-------------2--3--|
-----------------3----------2--3--4--------|


                                           
------------------------------------------|
------------------------------------------|
------------------------------------------|
------------------------------------------|
--4-----2-----0--------4----2----0--------|
-----2-----2-----2--0---------------2--0--|


                                             
--------------------------------------------|
--------------------------------------------|
--------------------------------------------|
--------------------------------------------|
--4-----2-----0--------4-----------2--3--4--|
-----2-----2-----2--0-----2--3--4-----------|


                                           
------------------------------------------|
------------------------------------------|
------------------------------------------|
------------------------------------------|
--5-----3-----1--------5----3----1--------|
-----3-----3-----3--1---------------3--1--|


                                                                        
--------------------------------------------|--------------------------|
--------------------------------------------|--------------------------|
--------------------------------------------|--------------2-----------|
--------------------------------------------|--------4--1-----4--1--0--|
--5-----3-----1--------5-----------3--4--5--|--6--3--------------------|
-----3-----3-----3--1-----3--4--5-----------|--------------------------|


                                           
------------------------------------------|
------------------------------------------|
------------------------------------------|
------------------------------------------|
--4-----2-----0--------4----2----0--------|
-----2-----2-----2--0---------------2--0--|


                                             
--------------------------------------------|
--------------------------------------------|
--------------------------------------------|
--------------------------------------------|
--4-----2-----0--------4-----------2--3--4--|
-----2-----2-----2--0-----2--3--4-----------|


                                           
------------------------------------------|
------------------------------------------|
------------------------------------------|
------------------------------------------|
--5-----3-----1--------5----3----1--------|
-----3-----3-----3--1---------------3--1--|


                                             
--------------------------------------------|
--------------------------------------------|
--------------------------------------------|
--------------------------------------------|
--5-----3-----1--------5-----------3--4--5--|
-----3-----3-----3--1-----3--4--5-----------|


                                        
---------------------------------------|
---------------------------------------|
--------------2--------5----8----------|
--------4--1-----4--1--4----7----------|
--6--3-----------------3----6----------|
---------------------------------------|


                                             
--------------------------------------------|
--4--1--------1-----------------------------|
--------2--------2-----------------2--------|
-----------4--------4--1-----4--1-----4--1--|
--------------------------3-----------------|
--------------------------------------------|








    

                                                                                





Comments


Popular Between The Buried And Me tabs & chords
Arsonist Bass Tabs
Backwards Marathon Bass Tabs
Colorblind Bass Tabs
Desert Of Song Chords
Shevanel Take 2 Chords
Ad A Dglgmut 2 Tabs
Breathe In, Breathe Out Tabs
Mordecai Tabs
Prequel To The Sequel Intro 1 Tabs
Shevanel Take 2 1 Tabs


Song lyrics



↑ Back to top | Tablatures and chords are parodies/interpretations of the original songs. You may use it for private study, scholarship, research or language learning purposes only
© 2014 AZChords.com Contact us | Privacy policy | DMCA | Add/correct tabs | Request tabs | Top 50 tabs