» » »

Between The Buried And Me, Reaction Tabs (ver.1)

Artists:  A B C D E F G H I J K L M N O P Q R S T U V W X Y Z # 

Reaction Tabs (ver.1)

Between The Buried And Me Tabs
Rating:
0/5 (0 votes)
Hard to play? Try these video lessons and learn fast.
                Track:           5
Tuning:          C# standard (C#, F#, B, E, Ab, C#)

Copyright © Victory Records 2003
Version 1.0 - October 5, 2004

                  ----------------------------------------------

Tab legend:
.  - palm mute           /  - slide up to
\  - slide down to       ~  - vibrato
h  - hammer on           b  - Bend
p  - pull off            Suffixes for bend
t  - tap                 f  - full bend    h - half bend
a  - comments            q  - quarter bend t - tap bend
*  - pinched harmonic    ^  - Hold bend    r release bend
x  - Stuccatto           ~  - vibrato bend
,  - slight palm mute    [] - ghost note, sustained note
() - tremolo note         - Trill

                  ----------------------------------------------

Chords:

(XXX654)    - F#min
(XX7655)    - F#maj
(XXX91212)  - C#5
(XX7657)    - F#add9

                  ----------------------------------------------

Keyboard (Just use lots of chorus and reverb.):

                                    xalot
|--4-----------5-----------12-----------------||
|--5-----------5-----------12-----------------||
|.-6-----------6-----------9-----------------.||
|.-------------7-----------------------------.||
|---------------------------------------------||
|---------------------------------------------||

(Acoustic comes in at 1:46.45.)

|--7--7-775---||
|--5--5-555---||
|.-6--6-666--.||
|.-7--7-777--.||
|-------------||
|-------------||
            

comments powered by Disqus
↑ Back to top | Between The Buried And Me Tabs for Reaction. Lyrics for acoustic guitar and electric guitar. Tablatures and chords are parodies/interpretations of the original songs. You may use it for private study, scholarship, research or language learning purposes only