>
 >
Need For Repetition

Need For Repetition Bass Tabs

Between The Buried And Me - Need For Repetition chords, tabs, tablatures, lyrics

Guitar lessons | Add/correct | Request | Top 50 tabs Artists:  A B C D E F G H I J K L M N O P Q R S T U V W X Y Z 0-9

Need For Repetition Bass Tabs – Between The Buried And Me

CD, Sheet music, Poster

Do you like Need For Repetition? Share with your friends now
Bass TabsTabsTabs v2
Tuning: C# Standard
high to low (E, B, F#, C#)


|-------------------|
|-------------------|
|-------------------|
|-0~----------------|


|-------------------------------|
|----3-/9-9---------------------|
|----------------3-2-2----------|
|-0----------0----------0-1-0-1-|x4


|-----------------------|
|-----------------------|
|-----------------------|
|-0~------------0-1-0-1-|x4


|-------------------------------|
|----3-/9-9---------------------|
|----------------3-2-2----------|
|-0----------0----------0-1-0-1-|x4


|-----------------------|
|-----------------------|
|-----------------------|
|-0~------------0-1-0-1-|x4


|-------------------------------|
|----3-/9-9---------------------|
|----------------3-2-2----------|
|-0----------0----------0-1-0-1-|x8

|-------------------|
|-------------------|
|-------------------|
|-0~----------------|


*This part can be a little confusing, so listen closely to the song.
|-------------------------------------------------|
|---------------------------------------------5-8-|
|-----4-7-----------4-7-----4-7-----------4-7-----|
|-3-6-----------3-6-----3-6-----------3-6---------|x2

|---------------------6-9-|
|-----------------5-8-----|
|-----4-7-----4-7---------|
|-3-6-----3-6-------------|x2

|-------------------------6-9-|
|---------5-8---------5-8-----|
|-----4-7---------4-7---------|
|-3-6---------3-6-------------|

|---------------------6-9-|
|-----------------5-8-----|
|-----4-7-----4-7---------|
|-3-6-----3-6-------------|x2

|-------------------------6-9-|
|---------5-8---------5-8-----|
|-----4-7---------4-7---------|
|-3-6---------3-6-------------|


|-------------------------------------------------|
|-------------------------------------------------|
|-------------------------------------------------|
|-5-6-4-------5-6-4-------5-6-4-5-6-4-5-6-4-3-2-1-|

|-------------------------------------------------|
|-------------------------------------------------|
|-------------------------------------------------|
|-3-3-3-2-2-2-3-3-3-2-2-2-3-3-3-2-2-2-3-3-3-2-2-2-|


*Play this many times.
|---------4--------------|
|-------5---7-4----------|
|-7--6----------7-5-6----|
|------------------------|


...a few minutes later...


"I ain't no goddamn woman."


|-------|
|-------|
|-------|
|-12\---|


*I don't know how many times this is played, but just
listen for the ryhthm.
|--------------------------------------------|
|--------------------------------------------|
|--------------------------------------------|
|-0~----0-0--0-0--0-0-0-1~---1-1--1-1--1-1-1-|


|-------------------------|
|-------------------------|
|-------------------------|
|-0~-----(0)--0~-----(0)--|

|-----------|
|-----------|
|-----------|
|-0~-----0x-|x4

|-----------------------------|
|-----------------------------|
|-----------------------------|
|-0~------------12\---0~----0-|





Comments


Popular Between The Buried And Me tabs & chords
Colorblind Bass Tabs
Foam Born The Backtrack Bass Tabs
Alaska 2 Tabs
Alaska Intro 2 Tabs
Destructo Spin Tabs
Prequel To The Sequel Intro 2 Tabs
Selkies The Endless Obesession 2 Tabs
Selkies The Endless Obsession Tabs
Selkies The Endless Obsession 2 Tabs
Shevanel Take 2 2 Tabs


Song lyrics



↑ Back to top | Tablatures and chords are parodies/interpretations of the original songs. You may use it for private study, scholarship, research or language learning purposes only
© 2014 AZChords.com Contact us | Privacy policy | DMCA | Add/correct tabs | Request tabs | Top 50 tabs