» » »

Between The Buried And Me, Naked By The Computer Tabs (ver.1)

Artists:  A B C D E F G H I J K L M N O P Q R S T U V W X Y Z # 

Naked By The Computer Tabs (ver.1)

Between The Buried And Me Tabs
Rating:
0/5 (0 votes)
Naked By The Computer lessons Tabs too difficult? Try these video lessons and learn fast
                BTBAM- naked by the computer.txt

Db :| ----------------|------------------|------------------ [|
Ab :| ----------------|------------------|------------------ ||
E  :|*----------------|---------9------9-|-9--9-6-----6-6-6-*||
B  :|*2---------------|--------10-----10-|10-10-7-----7-7-7-*||
Gb :| 2-------5-9-7---|----7-9-10-----10-|10-10-7-----7-7-7- ||
Db :| 0---------------|--7------8------8-|-8--8-5-----5-5-5- ||

Db :-----------------------|------------------------|
Ab :-----------------------|------------------------|
E  :--12-11----12-11----12-|11----12-11----14-12-11-|
B  :--------12-------12----|---12-------12----------|
Gb :-----------------------|------------------------|
Db :-----------------------|------------------------|

Db :------------------------|------------------|
Ab :------------------------|------------------|
E  :12-11----12-11----12-11-|------------------|
B  :------12-------12-------|12-14-------------|
Gb :------------------------|------------------|
Db :------------------------|------------------|
            

comments powered by Disqus
↑ Back to top | Between The Buried And Me Tabs for Naked By The Computer. Lyrics for acoustic guitar and electric guitar. Tablatures and chords are parodies/interpretations of the original songs. You may use it for private study, scholarship, research or language learning purposes only