» » »

Between The Buried And Me, Croakies And Boatshoes Tabs (ver.1)

Artists:  A B C D E F G H I J K L M N O P Q R S T U V W X Y Z # 

Croakies And Boatshoes Tabs (ver.1)

Between The Buried And Me Tabs
 Rating:
4/5 (4 votes)
Croakies And Boatshoes lessons Tabs too difficult? Try these video lessons and learn fast
1
                #------------------------------------------------------------------------------##

****NOTE****
This is not my work, I merely converted it into ASCII tabulature so that those
without Powertab Editor will be able to enjoy this song.


                              COAKIES AND BOATSHOES
                    As recorded by Between The Buried And Me
                          (From the 2005 Album ALASKA)

Music by Between The Buried And Me
Arranged by Xerocyber

Gtr I (Db Gb B E Ab Db) - 'Untitled'
Gtr II (Db Gb B E Ab Db) - 'Untitled'

 Intro                                        "Croakies... Boatshoes..."
  Fast Rock Q=235
  F# G       A#        A       N.C.            F# G       A#
 4/4                               2/4        4/4
  Gtr I
  Q  Q  +Q   Q    +Q   Q  +Q   Q    +Q   Q     Q  Q  +Q   Q
|---------------|-----------------|---------||---------------|
|---------------|-----------------|---------||---------------|
|-3--4--(4)--7--|-(7)--6--(6)--8--|-(8)--x--||-3--4--(4)--7--|
|-x--x-------x--|------x-------x--|------x--||-x--x-------x--|
|-1--2--(2)--5--|-(5)--4--(4)--6--|-(6)--x--||-1--2--(2)--5--|
|---------------|-----------------|---------||---------------|
|
| Gtr II
| Q  Q  +Q   Q    +Q   Q  +Q   Q    +Q   Q     Q  Q  +Q   Q
|---------------|-----------------|---------||---------------|
|---------------|-----------------|---------||---------------|
|------------3--|-(3)--2--(2)--8--|-(8)--x--||------------3--|
|-4--5--(5)--3--|-(3)--2--(2)--x--|------x--||-4--5--(5)--3--|
|-4--5--(5)--1--|-(1)--0--(0)--6--|-(6)--x--||-4--5--(5)--1--|
|-2--3--(3)-----|-----------------|---------||-2--3--(3)-----|


       A       D#5       A#5D5          D#5A#5N.C.
  +Q   Q  +Q   Q    +Q   Q  H      +Q   Q  Q  Q         +Q   Q  H
|-----------------|--------------|--------------------|--------------|
|-----------------|--------------|--------------------|--------------|
|-(7)--6--(6)--8--|-(8)--x--7----|-(7)--8--x--7-------|-(7)--7-------|
|------x-------8--|-(8)--x--7----|-(7)--8--x--x-------|------x--8----|
|-(5)--4--(4)--6--|-(6)--x--5----|-(5)--6--x--5-------|-(5)--5--x----|
|-----------------|--------------|--------------------|---------6----|
|
|                        PM                PM
| +Q   Q  +Q   Q    +Q   Q  H      +Q   Q  Q  E +E      +Q   Q  H
|-----------------|--------------|--------------------|--------------|
|-----------------|--------------|--------------------|--------------|
|-(3)--2--(2)--8--|-(8)-----7----|-(7)--8-------------|--------------|
|-(3)--2--(2)--8--|-(8)-----7----|-(7)--8-------------|------8--4----|
|-(1)--0--(0)--6--|-(6)--8--5----|-(5)--6--8--5-(5)b7-|-(5)--x--x----|
|-----------------|------6-------|---------6----------|------6--2----|


                     Gm      A#        A       D#5       A#5D5
  Q  Q  Q  Q    +Q   Q  +Q   Q    +Q   Q  +Q   Q    +Q   Q  H
|-------------|-----------------|-----------------|--------------|
|-------------|-----------------|-----------------|--------------|
|-8--7--------|--------------7--|-(7)--6--(6)--8--|-(8)--x--7----|
|-x--x--8--7--|-(7)--8--(8)--x--|------x-------8--|-(8)--x--7----|
|-6--5--x--x--|------x-------5--|-(5)--4--(4)--6--|-(6)--x--5----|
|-------6--5--|-(5)--6--(6)-----|-----------------|--------------|
|
|                                                        PM
| Q  Q  Q  Q    +Q   Q  +Q   Q    +Q   Q  +Q   Q    +Q   Q  H
|-------------|-----------------|-----------------|--------------|
|-------------|-----------------|-----------------|--------------|
|-5--4--------|--------------3--|-(3)--2--(2)--8--|-(8)-----7----|
|-x--x--5--4--|-(4)--5--(5)--3--|-(3)--2--(2)--8--|-(8)-----7----|
|-3--2--x--x--|------5--(5)--1--|-(1)--0--(0)--6--|-(6)--8--5----|
|-------3--2--|-(2)--3--(3)-----|-----------------|------6-------|


       D#5A# N.C.                                        Gm      A#
  +Q   Q  Q  Q         +Q   Q  H      Q  Q  Q  Q    +Q   Q  +Q   Q
|--------------------|--------------|-------------|------------------|
|--------------------|--------------|-------------|------------------|
|-(7)--8--x--7-------|-(7)--7-------|-8--7--------|--------------7---|
|-(7)--8--x--x-------|------x--8----|-x--x--8--7--|-(7)--8--(8)--x---|
|-(5)--6--x--5-------|-(5)--5--x----|-6--5--x--x--|------x-------5---|
|--------------------|---------6----|-------6--5--|-(5)--6--(6)------|
|
|         PM
| +Q   Q  Q  E +E      +Q   Q  H      Q  Q  Q  Q    +Q   Q  +Q   Q
|--------------------|--------------|-------------|------------------|
|--------------------|--------------|-------------|------------------|
|-(7)--8-------------|--------------|-5--4--------|--------------3---|
|-(7)--8-------------|------8--4----|-x--x--5--4--|-(4)--5--(5)--3---|
|-(5)--6--8--5-(5)b7-|-(5)--x--x----|-3--2--x--x--|------5--(5)--1---|
|---------6----------|------6--2----|-------3--2--|-(2)--3--(3)------|


       A       D#5       A# D5          D#5A# N.C.
  +Q   Q  +Q   Q    +Q   Q  H      +Q   Q  Q  Q         +Q   Q  H
|-----------------|--------------|--------------------|--------------|
|-----------------|--------------|--------------------|--------------|
|-(7)--6--(6)--8--|-(8)--x--7----|-(7)--8--x--7-------|-(7)--7-------|
|------x-------8--|-(8)--x--7----|-(7)--8--x--x-------|------x--8----|
|-(5)--4--(4)--6--|-(6)--x--5----|-(5)--6--x--5-------|-(5)--5--x----|
|-----------------|--------------|--------------------|---------6----|
|
|                        PM                PM
| +Q   Q  +Q   Q    +Q   Q  H      +Q   Q  Q  E +E      +Q   Q  H
|-----------------|--------------|--------------------|--------------|
|-----------------|--------------|--------------------|--------------|
|-(3)--2--(2)--8--|-(8)-----7----|-(7)--8-------------|--------------|
|-(3)--2--(2)--8--|-(8)-----7----|-(7)--8-------------|------8--4----|
|-(1)--0--(0)--6--|-(6)--8--5----|-(5)--6--8--5-(5)b7-|-(5)--x--x----|
|-----------------|------6-------|---------6----------|------6--2----|


                     G       A#        A       N.C.
                                                           PM
  Q  Q  Q  Q    +Q   Q  +Q   Q    +Q   Q  +Q    Q     +Q   Q   H
|-------------|-----------------|------------------|----------------|
|-------------|-----------------|------------------|----------------|
|-8--7--------|--------------7--|-(7)--6--(6)--12--|-(12)-----11----|
|-x--x--8--7--|-(7)--8--(8)--x--|------x--------x--|-----------x----|
|-6--5--x--x--|------x-------5--|-(5)--4--(4)--10--|-(10)------9----|
|-------6--5--|-(5)--6--(6)-----|------------------|-------0--------|
|
|                                                          PM
| Q  Q  Q  Q    +Q   Q  +Q   Q    +Q   Q  +Q    Q     +Q   Q   H
|-------------|-----------------|------------------|----------------|
|-------------|-----------------|------------------|----------------|
|-5--4--------|--------------3--|-(3)--2--(2)---8--|--(8)------7----|
|-x--x--5--4--|-(4)--5--(5)--3--|-(3)--2--(2)---x--|-----------x----|
|-3--2--x--x--|------5--(5)--1--|-(1)--0--(0)---6--|--(6)------5----|
|-------3--2--|-(2)--3--(3)-----|------------------|-------0--------|


                                                           C#5
            PM                                     PM               PM-|
   +Q    Q  Q   E  +E        +Q   Q  H       Q  Q  Q  Q     Q   Q   E  E Q
|-------------------------|---------------|--------------|-------------------||
|-------------------------|---------------|--------------|-------------------||
|-(11)--12-----11-(11)b12-|-(11)--7-------|--------------|-------------------||
|--------x------x---------|-------x--8----|-10--9-----8--|--4---4------------||
|--(9)--10------9--(9)b10-|--(9)--5--x----|--x--x-----x--|--4---4---4--4-----||
|-----------0-------------|----------6----|--8--7--0--6--|--2---2---2--2-----||
|
|           PM                                     PM
|  +Q    Q  Q   E  +E        +Q   Q  H       Q  Q  Q  Q    +H      +Q    Q
|-------------------------|---------------|--------------|-------------------||
|-------------------------|---------------|--------------|-------------------||
|--(7)---8------7--(7)b8--|--(7)--3-------|--------------|-------------------||
|--------x------x---------|-------x--4----|-10--9-----8--|-(8)-----(8)-------||
|--(5)---6------5--(5)b6--|--(5)--1--x----|--x--x-----x--|-------------------||
|-----------0-------------|----------2----|--8--7--0--6--|-(6)-----(6)-------||


   "Daddy's money..."
    N.C.
    Gtrs I, II
                |-3-|
    E E E E E E E E E   E E E E E E Q    Q  Q  Q  Q    Q  Q  Q  Q    4x
||--------------------|----------------|-------------|---------------||
||o-------------------|----------------|-------------|--------------o||
||--------------------|----------------|-------------|---------------||
||--------------6h9p6-|----------------|-------------|---------------||
||o---------5-5-------|-5-2------------|-------5-----|-4-----4--5---o||
||--4-4-7-7-----------|-----4-1-0-0-0--|-0--0-----6--|----5----------||


 "I've got something to..."
  N.C.
  PM--------|       PM--------|       PM--------|       PM--------|
  E E E E E E E E   E E E E E E E E   E E E E E E E E   E E E E E E E E
|-----------------|-----------------|-----------------|------------------|
|-----------------|-----------------|-----------------|------------------|
|-----------------|-----------------|-----------------|------------------|
|-------------3h6-|-------------3h6-|-------------3h6-|-------------3h6--|
|-----2-5-2-5-----|-----2-5-2-5-----|-----2-5-2-5-----|-----2-5-2-5------|
|-1-4-------------|-1-4-------------|-1-4-------------|-1-4--------------|


  Gtr I
  E E E E E E E E   E E E E E E E E   E E E E E E E E   E E E E E E E E
|-----------------|-----------------|-----------------|------------------|
|-----------------|-----------------|-----------------|------------------|
|-----------------|-----------------|-----------------|------------------|
|-------------3h6-|-------------3h6-|-------------3h6-|-------------3h6--|
|-----2h5-2h5-----|-----2h5-2h5-----|-----2h5-2h5-----|-----2h5-2h5------|
|-1h4-------------|-1h4-------------|-1h4-------------|-1h4--------------|
|
| Gtr II
| E E E E E E E E   E E E E E E E E   E E E E E E E E   E E E E E E E E
|-----------------|-----------------|-----------------|------------------|
|-----------------|-----------------|-----------------|------------------|
|-----------------|-----------------|-----------------|------------------|
|-------------6h9-|-------------6h9-|-------------6h9-|-------------6h9--|
|-----5h8-5h8-----|-----5h8-5h8-----|-----5h8-5h8-----|-----5h8-5h8------|
|-4h7-------------|-4h7-------------|-4h7-------------|-4h7--------------|


                    Q=195
 9/8                 2/4
  Gtr I
    PM|   PM|   PM|     PM|
  E E E E E E E E E   E E E E
|-------------------|---------||
|-------------------|---------||
|-------------------|---------||
|-------------------|---------||
|-6-----5-----4-----|-3-------||
|---5-4---4-3---3-2-|---3-2-3-||


   "Dude... Brah..."
    N.C.         E5
   4/4
                 PM--------------------------|
    E +E    +Q   E E E E   S S E E E S S E E E
||-----------------------|---------------------|
||o----------------------|---------------------|
||--3-(3)b4-(3)----------|---------------------|
||--x--------------------|---------------------|
||o-1-(1)b2-(1)--2-2-2-2-|-2-2-2-2-2-2-2-2-2-2-|
||---------------0-0-0-0-|-0-0-0-0-0-0-0-0-0-0-|
|
|   Gtr II
|                PM--------------------------|
|   E +E    +Q   E E E E   S S E E E S S E E E
||-----------------------|---------------------|
||o----------------------|---------------------|
||--3-(3)b4-(3)----------|---------------------|
||--x--------------------|---------------------|
||o-1-(1)b2-(1)--2-2-2-2-|-2-2-2-2-2-2-2-2-2-2-|
||---------------0-0-0-0-|-0-0-0-0-0-0-0-0-0-0-|


  N.C.         F# G    E  E5
                      2/4
                          PM--|
  E +E    +Q   Q  Q    Q  S S E
|--------------------|-----------|
|--------------------|-----------|
|-3-(3)b4-(3)--3--4--|-----------|
|-x------------x--x--|-6---------|
|-1-(1)b2-(1)--1--2--|-x--2-2-2--|
|--------------------|-4--0-0-0--|
|
|                         PM--|
| E +E    +Q   Q  Q    Q  S S E
|--------------------|-----------|
|--------------------|-----------|
|-3-(3)b4-(3)--------|-----------|
|-x------------4--5--|-2---------|
|-1-(1)b2-(1)--4--5--|-2--2-2-2--|
|--------------2--3--|-0--0-0-0--|


  N.C.         E5
 4/4
               PM--------------------------|
  E +E    +Q   E E E E   S S E E E S S E E E
|----------------------|---------------------|
|----------------------|---------------------|
|-3-(3)b4-(3)----------|---------------------|
|-x--------------------|---------------------|
|-1-(1)b2-(1)--2-2-2-2-|-2-2-2-2-2-2-2-2-2-2-|
|--------------0-0-0-0-|-0-0-0-0-0-0-0-0-0-0-|
|
|              PM--------------------------|
| E +E    +Q   E E E E   S S E E E S S E E E
|----------------------|---------------------|
|----------------------|---------------------|
|-3-(3)b4-(3)----------|---------------------|
|-x--------------------|---------------------|
|-1-(1)b2-(1)--2-2-2-2-|-2-2-2-2-2-2-2-2-2-2-|
|--------------0-0-0-0-|-0-0-0-0-0-0-0-0-0-0-|


  N.C.         F# G    E  N.C.
                      3/4
                            PM--|
  E +E    +Q   Q  Q    Q  E E E E
|--------------------|--------------||
|--------------------|-------------o||
|-3-(3)b4-(3)--3--4--|--------------||
|-x------------x--x--|-6------------||
|-1-(1)b2-(1)--1--2--|-x--3--------o||
|--------------------|-4----4-1-0---||
|
|                           PM--|
| E +E    +Q   Q  Q    Q  E E E E
|--------------------|--------------||
|--------------------|-------------o||
|-3-(3)b4-(3)--------|--------------||
|-x------------4--5--|-2------------||
|-1-(1)b2-(1)--4--5--|-2--3--------o||
|--------------2--3--|-0----4-1-0---||


  D5/A
 4/4
  Gtrs I, II
                                                PM--|
  W          +W           W          +H     +E  E S S E
|----------|------------|----------|---------------------||
|----------|------------|----------|---------------------||
|----------|------------|----------|---------------------||
|-7--------|-(7)--------|-7--------|-(7)----(7)----------||
|-5--------|-(5)--------|-5--------|-(5)----(5)-5-5-5----||
|-5--------|-(5)--------|-5--------|-(5)----(5)-5-5-5----||


   "Don't stare..."
    Q=200
    C5        B5          G#5    G5        D#5  F#5  D5/A
    H    +Q   Q    +H     H      H    +Q   Q    H    H     8x
||---------------|-------------|--------------|------------||
||o--------------|-------------|--------------|-----------o||
||---------------|-------------|--------------|------------||
||--5----(5)--4--|-(4)----6----|-5----(5)-----|-4----7-----||
||o-3----(3)--2--|-(2)----6----|-5----(5)--6--|-4----5----o||
||--3----(3)--2--|-(2)----4----|-3----(3)--6--|-2----5-----||


  C5/C#
  Gtr I
  W          +W           +W           +W
|----------|------------|------------|------------|
|----------|------------|------------|------------|
|----------|------------|------------|------------|
|-5--------|-(5)--------|-(5)--------|-(5)--------|
|-3--------|-(3)--------|-(3)--------|-(3)--------|
|-3--------|-(3)--------|-(3)--------|-(3)--------|
|
| Gtr II
| W          +W           +W           +W
|----------|------------|------------|------------|
|----------|------------|------------|------------|
|-6--------|-(6)--------|-(6)--------|-(6)--------|
|-x--------|------------|------------|------------|
|-4--------|-(4)--------|-(4)--------|-(4)--------|
|----------|------------|------------|------------|


  +W           +W           +W           +W
|------------|------------|------------|--------||
|------------|------------|------------|--------||
|------------|------------|------------|--------||
|-(5)--------|-(5)--------|-(5)--------|-(5)----||
|-(3)--------|-(3)--------|-(3)--------|-(3)----||
|-(3)--------|-(3)--------|-(3)--------|-(3)----||
|
| +W           +W           +W           +W
|------------|------------|------------|--------||
|------------|------------|------------|--------||
|-(6)--------|-(6)--------|-(6)--------|-(6)----||
|------------|------------|------------|--------||
|-(4)--------|-(4)--------|-(4)--------|-(4)----||
|------------|------------|------------|--------||


 "Croakies... Boatshoes..."
  Q=245
  N.C.
  Gtrs I, II
  PM--------|       PM--------|       PM--------|       PM--------|
  E E E E E E E E   E E E E E E E E   E E E E E E E E   E E E E E E E E
|-----------------|-----------------|-----------------|------------------|
|-----------------|-----------------|-----------------|------------------|
|-----------------|-----------------|-----------------|------------------|
|-------------3h6-|-------------3h6-|-------------3h6-|-------------3h6--|
|-----2-5-2-5-----|-----2-5-2-5-----|-----2-5-2-5-----|-----2-5-2-5------|
|-1-4-------------|-1-4-------------|-1-4-------------|-1-4--------------|


  Gtr I
  E E E E E E E E   E E E E E E E E
|-----------------|-----------------|
|-----------------|-----------------|
|-----------------|-----------------|
|-------------3h6-|-------------3h6-|
|-----2h5-2h5-----|-----2h5-2h5-----|
|-1h4-------------|-1h4-------------|
|
| Gtr II
| E E E E E E E E   E E E E E E E E
|-----------------|-----------------|
|-----------------|-----------------|
|-----------------|-----------------|
|-------------6h9-|-------------6h9-|
|-----5h8-5h8-----|-----5h8-5h8-----|
|-4h7-------------|-4h7-------------|


                                      F5
  E E E E E E E E   E E E E E E E E   Q  Q  H
|-----------------|-----------------|------------*|
|-----------------|-----------------|------------*|
|-----------------|-----------------|------------*|
|-------------3h6-|-------------3h6-|-3----------*|
|-----2h5-2h5-----|-----2h5-2h5-----|-3----------*|
|-1h4-------------|-1h4-------------|-1----------*|
|
| E E E E E E E E   E E E E E E E E   Q  Q  H
|-----------------|-----------------|------------*|
|-----------------|-----------------|------------*|
|-----------------|-----------------|------------*|
|-------------6h9-|-------------6h9-|-3----------*|
|-----5h8-5h8-----|-----5h8-5h8-----|-3----------*|
|-4h7-------------|-4h7-------------|-1----------*|


Duration Legend
---------------
W - whole; H - half; Q - quarter; E - 8th; S - 16th; T - 32nd; X - 64th; a - acciaccatura
+ - note tied to previous; . - note dotted; .. - note double dotted
Uncapitalized letters represent notes that are staccato (1/2 duration)
Irregular groupings are notated above the duration line
Duration letters will always appear directly above the note/fret number it represents the
duration for.  Duration letters with no fret number below them represent rests.  Multi-
bar rests are notated in the form Wxn, where n is the number of bars to rest for.  Low
melody durations appear below the staff

Tablature Legend
----------------
 h   - hammer-on
 p   - pull-off
 b   - bend
 pb  - pre-bend
 r   - bend release (if no number after the r, then release immediately)
 /\  - slide into or out of (from/to "nowhere")
 s   - legato slide
 S   - shift slide
  - natural harmonic
[n]  - artificial harmonic
n(n) - tapped harmonic
 ~   - vibrato
 tr  - trill
 T   - tap
 TP  - trem. picking
 PM  - palm muting
\n/  - tremolo bar dip; n = amount to dip
 \n  - tremolo bar down
 n/  - tremolo bar up
/n\  - tremolo bar inverted dip
 =   - hold bend; also acts as connecting device for hammers/pulls
 <>  - volume swell (louder/softer)
 x   - on rhythm slash represents muted slash
 o   - on rhythm slash represents single note slash

Misc Legend
-----------
 |  - bar
||  - double bar
||o - repeat start
o|| - repeat end
*|  - double bar (ending)
 :  - bar (freetime)
 $  - Segno
 &  - Coda
Tempo markers -  = BPM(8/16=s8/s16), where s8 = swing 8ths, s16 = swing 16ths


***************************************************************************************
***************************************************************************************
            
Submit corrections

comments powered by Disqus
↑ Back to top | Between The Buried And Me Tabs for Croakies And Boatshoes. Lyrics for acoustic guitar and electric guitar. 1 Tablatures and chords are parodies/interpretations of the original songs. You may use it for private study, scholarship, research or language learning purposes only