» » »

Between The Buried And Me, Croakies And Boatshoes Bass tabs (ver.1)

Artists:  A B C D E F G H I J K L M N O P Q R S T U V W X Y Z # 

Croakies And Boatshoes Bass tabs (ver.1)

Between The Buried And Me Tabs
Rating:
0/5 (0 votes)
Croakies And Boatshoes lessons Tabs too difficult? Try these video lessons and learn fast
                COAKIES AND BOATSHOES (Bassline)
As recorded by Between The Buried And Me
(From the 2005 Album ALASKA)


Music by Between The Buried And Me
Arranged by Xerocyber


Gtr I (Ab Db Gb B E) - 'Untitled'

 Intro                                        "Croakies... Boatshoes..."
  Fast Rock Q=235
 4/4                               2/4        4/4
  Gtr I
  Q  Q  +Q   Q    +Q   Q  +Q   Q    +Q   Q     Q  Q  +Q   Q
|---------------|-----------------|---------||---------------|
|---------------|-----------------|---------||---------------|
|------------1--|-(1)--0--(0)-----|---------||------------1--|
|-2--3--(3)-----|-----------------|------0--||-2--3--(3)-----|
|---------------|--------------4--|-(4)-----||---------------|


  +Q   Q  +Q   Q    Q  Q  H      +Q   Q  Q  Q    +Q   Q  H
|-----------------|------------|---------------|--------------|
|-----------------|------------|---------------|--------------|
|-(1)--0--(0)-----|------------|---------------|------1-------|
|-----------------|----6-------|---------6-----|---------2----|
|--------------4--|-4-----3----|-(3)--4-----3--|-(3)----------|


  Q  Q  Q  Q    +Q   Q  +Q   Q    +Q   Q  +Q   Q    +Q   Q  H
|-------------|-----------------|-----------------|--------------|
|-------------|-----------------|-----------------|--------------|
|-3--2--------|--------------1--|-(1)--0--(0)-----|--------------|
|-------3--2--|-(2)--3--(3)-----|-----------------|------6-------|
|-------------|-----------------|--------------4--|-(4)-----3----|


  +Q   Q  Q  Q    +Q   Q  H      Q  Q  Q  Q    +Q   Q  +Q   Q
|---------------|--------------|-------------|------------------|
|---------------|--------------|-------------|------------------|
|---------------|------1-------|-3--2--------|--------------1---|
|---------6-----|---------2----|-------3--2--|-(2)--3--(3)------|
|-(3)--4-----3--|-(3)----------|-------------|------------------|


  +Q   Q  +Q   Q    +Q   Q  H      +Q   Q  Q  Q    +Q   Q  H
|-----------------|--------------|---------------|--------------|
|-----------------|--------------|---------------|--------------|
|-(1)--0--(0)-----|--------------|---------------|------1-------|
|-----------------|------6-------|---------6-----|---------2----|
|--------------4--|-(4)-----3----|-(3)--4-----3--|-(3)----------|


  Q  Q  Q  Q    +Q   Q  +Q   Q    +Q   Q  +Q   Q    +Q   Q  H
|-------------|-----------------|-----------------|--------------|
|-------------|-----------------|-----------------|--------------|
|-3--2--------|--------------1--|-(1)--0--(0)-----|--------------|
|-------3--2--|-(2)--3--(3)-----|-----------------|------6-------|
|-------------|-----------------|--------------4--|-(4)-----3----|


  +Q   Q  Q  Q    +Q   Q  H      Q  Q  Q  Q    Q  Q  E E Q
|---------------|--------------|-------------|---------------||
|---------------|--------------|-------------|---------------||
|---------------|------1-------|-3--2-----1--|---------------||
|---------6-----|---------2----|-------0-----|-2--2--2-2-----||
|-(3)--4-----3--|-(3)----------|-------------|---------------||


   "Daddy's money..."
                |-3-|
    E E E E E E E E E   E E E E E E Q    Q  Q  Q  Q    Q  Q  Q  Q    4x
||--------------------|----------------|-------------|---------------||
||o-------------6-9-6-|----------------|-------------|--------------o||
||----------5-5-------|-5-2------------|-------5-----|-4-----4--5----||
||o-4-4-7-7-----------|-----4-1-0-0-0--|-0--0-----6--|----5---------o||
||--------------------|----------------|-------------|---------------||


   "I've got something to..."
    E E E E E E E E   E E E E E E E E   E E E E E E E E   E E E E E E E E
||------------------|-----------------|-----------------|------------------||
||o-------------3-6-|-------------3-6-|-------------3-6-|-------------3-6-o||
||------2-5-2-5-----|-----2-5-2-5-----|-----2-5-2-5-----|-----2-5-2-5------||
||o-1-4-------------|-1-4-------------|-1-4-------------|-1-4-------------o||
||------------------|-----------------|-----------------|------------------||


                 Slower Q=195
 9/8              2/4
  q  E E Q  q  E   q  Q
|----------------|-------||
|----------------|-------||
|----------------|-------||
|----------------|-------||
|-4----3----2----|-1-----||


   "Dude... Brah..."
   4/4                                               2/4
    H    E E E E   S S E E E S S E E E   H    Q  Q    Q  S S E
||---------------|---------------------|------------|-----------|
||o--------------|---------------------|------------|-----------|
||--1------------|---------------------|-1----------|-----------|
||o------0-0-0-0-|-0-0-0-0-0-0-0-0-0-0-|------2--3--|-0--0-0-0--|
||---------------|---------------------|------------|-----------|


 4/4                                               3/4
  H    E E E E   S S E E E S S E E E   H    Q  Q    Q  E E E E
|--------------|---------------------|------------|--------------||
|--------------|---------------------|------------|-------------o||
|-1------------|---------------------|-1----------|----3---------||
|------0-0-0-0-|-0-0-0-0-0-0-0-0-0-0-|------2--3--|-0----4-1-0--o||
|--------------|---------------------|------------|--------------||


 4/4
  W          +W           W          +H     +E  E S S E
|----------|------------|----------|---------------------||
|----------|------------|----------|---------------------||
|----------|------------|----------|---------------------||
|----------|------------|----------|---------------------||
|-3--------|-(3)--------|-3--------|-(3)----(3)-3-3-3----||


   "Don't stare..."
    H    +Q   Q    +H     H      H    +Q   Q    H    H     8x
||---------------|-------------|--------------|------------||
||o--------------|-------------|--------------|-----------o||
||--3----(3)--2--|-(2)---------|--------------|------------||
||o--------------|--------4----|-3----(3)-----|-2---------o||
||---------------|-------------|-----------4--|------3-----||


  W          +W           +W           +W
|----------|------------|------------|------------|
|----------|------------|------------|------------|
|----------|------------|------------|------------|
|----------|------------|------------|------------|
|-1--------|-(1)--------|-(1)--------|-(1)--------|


  +W           +W           +W           +W
|------------|------------|------------|--------||
|------------|------------|------------|--------||
|------------|------------|------------|--------||
|------------|------------|------------|--------||
|-(1)--------|-(1)--------|-(1)--------|-(1)----||


   "Croakies... Boatshoes..."
    Faster Q=245
    E E E E E E E E   E E E E E E E E
||------------------|-----------------|
||o-------------3-6-|-------------3-6-|
||------2-5-2-5-----|-----2-5-2-5-----|
||o-1-4-------------|-1-4-------------|
||------------------|-----------------|


  E E E E E E E E   E E E E E E E E     Q  Q  H
|-----------------|------------------||------------*|
|-------------3-6-|-------------3-6-o||------------*|
|-----2-5-2-5-----|-----2-5-2-5------||------------*|
|-1-4-------------|-1-4-------------o||-1----------*|
|-----------------|------------------||------------*|


Duration Legend
---------------
W - whole; H - half; Q - quarter; E - 8th; S - 16th; T - 32nd; X - 64th; a - acciaccatura
+ - note tied to previous; . - note dotted; .. - note double dotted
Uncapitalized letters represent notes that are staccato (1/2 duration)
Irregular groupings are notated above the duration line
Duration letters will always appear directly above the note/fret number it represents the
duration for.  Duration letters with no fret number below them represent rests.  Multi-
bar rests are notated in the form Wxn, where n is the number of bars to rest for.  Low
melody durations appear below the staff

Tablature Legend
----------------
 h   - hammer-on
 p   - pull-off
 b   - bend
 pb  - pre-bend
 r   - bend release (if no number after the r, then release immediately)
 /\  - slide into or out of (from/to "nowhere")
 s   - legato slide
 S   - shift slide
 - natural harmonic
[n]  - artificial harmonic
n(n) - tapped harmonic
 ~   - vibrato
 tr  - trill
 T   - tap
 TP  - trem. picking
 PM  - palm muting
\n/  - tremolo bar dip; n = amount to dip
 \n  - tremolo bar down
 n/  - tremolo bar up
/n\  - tremolo bar inverted dip
 =   - hold bend; also acts as connecting device for hammers/pulls
 <> - volume swell (louder/softer)
 x   - on rhythm slash represents muted slash
 o   - on rhythm slash represents single note slash

Misc Legend
-----------
 |  - bar
||  - double bar
||o - repeat start
o|| - repeat end
*|  - double bar (ending)
 :  - bar (freetime)
 $  - Segno
 &  - Coda
Tempo markers -  = BPM(8/16=s8/s16), where s8 = swing 8ths, s16 = swing 16ths
            
Submit corrections

comments powered by Disqus
↑ Back to top | Between The Buried And Me Bass for Croakies And Boatshoes. Lyrics for acoustic guitar and electric guitar. Tablatures and chords are parodies/interpretations of the original songs. You may use it for private study, scholarship, research or language learning purposes only