» » »

Croakes And Boatshoes Tabs (ver.1)

Artists:  A B C D E F G H I J K L M N O P Q R S T U V W X Y Z # 

Croakes And Boatshoes Tabs (ver.1)

Between The Buried And Me
Rating:
0/5 (0 votes)

Hard to play? Try these video lessons and learn fast.
                Db|--------------|
Ab|--------------|
E |-3-4--7--6--8-|
B |-x-x--x--x--x-|
Gb|-1-2--5--4--6-|
Db|--------------|

Db|---------------------------------|
Ab|---------------------------------|
E |-3--4--7--6--8-----5-----8-----7-|
B |-x--x--x--x--8-----5-----8-----x-|
Gb|-1--2--5--4--6-----7-----6-----5-|
Db|----------------0-----------0----|

Db|------|---------------|
Ab|------|---------------|
E |------|---------------|
B |-8--4-|-10--9---5---4-|
Gb|-x--x-|-x---x---x---x-|
Db|-6--2-|-8---7---3---2-|


Db|-------------------------------|------|---------------|x2
Ab|-------------------------------|------|---------------|
E |-----------8-----7-----8-----7-|------|---------------|
B |-5--3--2---8-----7-----8-----x-|-8--4-|-10--9---5---4-|
Gb|-x--1--0---6-----5-----6-----5-|-x--x-|-x---x---x---x-|
Db|-3------------0-----------0----|-6--2-|-8---7---3---2-|

Db|----------------------------------------------------|
Ab|----------------------------------------------------|
E |-----------12---11--12---11-------------------------|
B |-5--3--2---x----x---x----x---12---8---10--9-------8-|
Gb|-x--1--0---10---9---10---9---x----x---x---x-------x-|
Db|-3------------0--------0-----10---6---8---7---0---6-|

Db|--------------|
Ab|--------------|
E |--------------|
B |--------------|
Gb|-4----4---4-4-|
Db|-2----2---2-2-|

Db|-------------------|----------------|--------------------------|
Ab|-------------------|----------------|--------------------------|
E |-------------------|----------------|--------------------------|
B |-------------6-9-6-|----------------|--------------------------|
Gb|---------5-5-------|----------------|---------5----------------|
Db|-4-4-7-7-----------|-10-7-4-1-0-0-0-|-0---0------------------6-|



Db|------------------------------------------|x4
Ab|------------------------------------------|
E |------------------------------------------|
B |------------------------------------------|
Gb|-4----------------------4----5------------|
Db|--------------------5---------------------|

Db|-----------------|x8
Ab|-----------------|
E |-----------------|
B |-------------3-6-|
Gb|-----2-5-2-5-----|
Db|-1-4-------------|

Db|---------------------------|
Ab|---------------------------|
E |---------------------------|
B |---------------------------|
Gb|-6-----5-----4-----3-------|
Db|---5-4---4-3---3-2---3-2-3-|

Db|--------------------------------------------------------|
Ab|--------------------------------------------------------|
E |--------------------------------------------3--4--------|
B |-8--------------------------------------8---x--x--6-----|
Gb|-x--------------------------------------x---1--2--x-----|
Db|-6---0--0--0--0--000--0--0--000--0--0---6---------4--000|

Db|-----------------------------------------------------------|
Ab|-----------------------------------------------------------|
E |-------------------------------------------3--4------------|
B |-8-------------------------------------8---x--x--6---------|
Gb|-x-------------------------------------x---1--2--x---------|
Db|-6---0--0--0--0--000--0--0--000--0--0--6---------4-8-4-1-0-|

Db|--------------------------------------------------------|
Ab|--------------------------------------------------------|
E |--------------------------------------------3--4--------|
B |-8--------------------------------------8---x--x--6-----|
Gb|-x--------------------------------------x---1--2--x-----|
Db|-6---0--0--0--0--000--0--0--000--0--0---6---------4--000|

Db|-----------------------------------------------------------|
Ab|-----------------------------------------------------------|
E |-------------------------------------------3--4------------|
B |-8-------------------------------------8---x--x--6---------|
Gb|-x-------------------------------------x---1--2--x---------|
Db|-6---0--0--0--0--000--0--0--000--0--0--6---------4-8-4-1-0-|

Db|--------------|
Ab|--------------|
E |--------------|
B |-2~--2~--2-22-|
Gb|-2~--2~--2-22-|
Db|-0~--0~--0-00-|


Db|-------------------------|x8
Ab|-------------------------|
E |-------------------------|
B |-12~--11~--8~--7~--3-6-2-|
Gb|-12~--11~--8~--7~--3-6-2-|
Db|-10~--9~---6~--5~--1—4-0-|

Db|-----------------------------------|
Ab|-----------------------------------|
E |-8~--------------------------------|
B |-12~-------------------------------|
Gb|-12~-------------------------------|
Db|-10-~------------------------------|

Db|-----------------|x8
Ab|-----------------|
E |-----------------|
B |-------------3-6-|
Gb|-----2-5-2-5-----|
Db|-1-4-------------|

Db|------|
Ab|------|
E |------|
B |-3----|
Gb|-3----|
Db|-1----|
            
Hard to play? Try these video lessons and learn fast. | Correct




comments powered by Disqus
↑ Back to top | Tablatures and chords are parodies/interpretations of the original songs. You may use it for private study, scholarship, research or language learning purposes only