» » »

Between The Buried And Me, Colorblind Tabs (ver.1)

Artists:  A B C D E F G H I J K L M N O P Q R S T U V W X Y Z # 

Colorblind Tabs (ver.1)

Between The Buried And Me Tabs
 Rating:
4/5 (4 votes)
Colorblind lessons Tabs too difficult? Try these video lessons and learn fast
                		     Colourblind - Between the Buried and Me

pretty easy so I figured I would give it a shot. The majority of the song is just one part 
over and over.

Tuning: Standard (EADGBE)

Intro:
  Am       Bb       F        Bb
e|-----0--------1-----------------1---|
B|----1--------3---------1-------3----|
G|--2--------3----------2------3------|
D|-2--------3---------3-------3-------|
A|0--------1---------3-------1--------|
E|------------------1-----------------|

After playing this once, one guitar continues with the chords and the second does 
like this:

e|----0-3-0-------------------------1---3----------------5-3-1-|
B|--1-------1-----1-------565-----1---1---1-----56565--8-5-5-1-|
G|2-----------2---2---0---555---2-----------2---555555-5-------|
D|-------------------------------------------------------------|
A|-------------------------------------------------------------|
E|-------------------------------------------------------------|

e|------8--------12--------8-10--8-----------------------------|
B|5-6-5----------10-10-10-10-10-10-8---8-10-8------------------|
G|5------------------9-10--------------9--9-9-10----9-10--9-5--|
D|--------------------------------------------10---10-10-10-7--|
A|-------------------------------------------------------------|
E|-------------------------------------------------------------|

Then comes the rest of the song, which is the same part the whole way through except for 
brief pause when the drums come in.

  Am               Bb               F               Bb
e|-------------------------5--------1-------1-------1-------1------|
B|--------8---------------------------1---1---1---1---1---1---1---1|
G|--5---5---5---5----5---5---5---5------2-------2-------2-------2--|
D|7---7-------7----7---7-------7----3------------------------------|
A|0-------------------------------------------------1--------------|
E|-----------------6-----------------------------------------------|
            
Submit corrections

comments powered by Disqus
↑ Back to top | Between The Buried And Me Tabs for Colorblind. Lyrics for acoustic guitar and electric guitar. Tablatures and chords are parodies/interpretations of the original songs. You may use it for private study, scholarship, research or language learning purposes only