>
 >
Camilla Rhodes

Camilla Rhodes Bass Tabs

Between The Buried And Me - Camilla Rhodes chords, tabs, tablatures, lyrics

Guitar lessons | Add/correct | Request | Top 50 tabs Artists:  A B C D E F G H I J K L M N O P Q R S T U V W X Y Z 0-9

Camilla Rhodes Bass Tabs – Between The Buried And Me

CD, Sheet music, Poster

Do you like Camilla Rhodes? Share with your friends now
Bass TabsTabsTabs v2
Tuning: C# Standard
high to low (E, B, F#, C#)


|-----------------------------------------------------------|
|-----------------------------------------------------------|
|----------------------1-0----------------------------------|
|-4---3-3-3-3-3--4-4-------2-1---1-1-1-1----1--1--1-1-1-1---|

|--------------------|
|--------------------|
|--------------------|
|-4-4-3-3-2-2-1-1----|


|-------------------------------------------|
|---------------------------------7-10-7-7--|
|-8-11-8-7-10-7-6-9-6-5---------------------|
|------------------------5-8-5-5------------|

|--------------------------------------------------------|
|--------------------------------------------------------|
|--------7-8-10-8-9-11--------------7-8-10--------8-9-11-|
|-7-8-10---------------6-7-9-7-8-10--------8-9-11--------|

|-----------|
|-----------|
|-14\0/14b--|
|-----------|

|-------------------------------------------------|
|-------------------------------------------------|
|-x-x-x-x-x-x-x-x-x-x-x-x-------------------------|
|-------------------------7\--0-0-0-6\--0-0-0-6\--|

|-----------------------------------------------------------------|
|-----------------------------------------------------------------|
|-----------------------------------------------------------------|
|-7-7-7-7-7-7-7-7-7-7-7-7-7-7-7-7-6-6-6-6-6-6-6-6-6-6-6-6-6-6-6-6-|


|--------------------|
|---6----------------|
|-5---5-6-6-7---4----|
|-------------5---6--|x3

|-----------------------|
|---6-------------------|
|-5---5-6-6-7---4-------|
|-------------5---6--6--|


|-----------------|
|-----------------|
|-9-6-----9-6-----|
|-----8-5-----8-5-|


|---------------------------------------------------------|
|-----------------------------------------------------3-6-|
|-----------------------------------8---8-7---------5-----|
|-8--8888-7--7777-8--7--5--4--4-4-4---4-----4-0-3-6-------|

|----------------------------------------------------------|
|---4---------------------3-6-3----------------------7-----|
|-3---6-----5-4-----4---4-------4----------------9--6------|
|-------4-7-----3-6---6-----------5--6--3--5--650-65-------|


|--------------------------|
|--------------------------|
|--------------------------|
|-6-6-6-6-5-5-5-5--555-5-5-|x3

|------------------|
|------------------|
|------------------|
|-6-6-6-6-5-5-5-5--|

|--------------------------|
|--------------------------|
|--------------------------|
|-6-6-6-6-5-5-5-5--555-5-5-|x8


|--------------------|
|--------------------|
|--------1-----3-----|
|----0-4\--2-1---2-1-|

|----------------------------|
|----------------------------|
|--------1-----3-----4-------|
|----0-4\--2-1---2-1---2-1-2-|


|-------------------------|
|-------------------------|
|-------------------------|
|-0~--------3~----2--12\--|

|------------|
|------------|
|------------|
|-1/12\1/12\-|x3

|------------------|
|------------------|
|----------6---3---|
|-\1/12--3---0-----|

|------------|
|------------|
|------------|
|-1/12\1/12\-|x3

|----------------|
|----------------|
|----------------|
|-3~----2--2-2-2-|

|------------|
|------------|
|------------|
|-1/12\1/12\-|x3

|------------------|
|------------------|
|----------6---3---|
|-\1/12--3---0-----|

|------------|
|------------|
|------------|
|-1/12\1/12\-|x3

|-------------|
|-------------|
|-------------|
|-3~----2~----|


*I'm not sure on this part, but it sounds alright.
|-----------------|
|-----------------|
|-----0-3-1-4-0-3-|
|-0-3-------------|x7


Pause.


|------------------------------------------------------------|
|----------------------------------------7/13\7--------------|
|-6-----10----------------6-----10-----6--------6-----10-----|
|---7-0----7-000000000000---7-0----7-0------------7-0----7-0-|
                                                                x2
|---------------------------------------------|
|----------------------------13-9----14-10----|
|-7-6-7-10-9-10-7-9-10-6-7-9------10-------12-|
|---------------------------------------------|


|----------------------------------------------------------------------|
|-13-9----14-10----13-9----14-10----13-9----14-10----16-12----14-10----|
|------10-------12------10-------12------10-------12-------14-------12-|
|----------------------------------------------------------------------|

|--------------------------------------------------------------|
|-13-9----14-10----13-9----14-10-------9-13-10------9----------|
|------10-------12------10-------12-10---------12-9---10-------|
|--------------------------------------------------------8-7---|


|--------------------------------------------------------------|
|--------------------------------------------------------7-6---|
|-7---------5-7-5-4-5----------------------------------------5-|
|---3-0-3-7-----------6\-1-2-1-2-6-0-0-4--2211225522112--------|x4


|----------------------------------------------------|
|-----------------------------1----------------------|
|-------------------------0--------------------------|
|-0~----4--4-5-4-1~---------4---0~-----4--4-5-4-1--1-|


|--------------------------------------------------------------|
|--------------------------------------------------------------|
|-1-----3-----4-------4-----6-----7-------7-----9-----10-------|
|---2-1---2-1---2-1-2---5-4---5-4---5-4-5---8-7---8-7----8-7-8-|

|---------------------------------------|
|---------------------------------------|
|-10-------12-------13------------------|
|----11-10----11-10----11-10-11---------|


|-------------------------------------------------------------------------|
|-------------------------------------------------------------------------|
|-----------------------------------8---8---------------------------------|
|-8--8888-7--7777-8--7--5--4--4-4-4---4---1/5-0-0-1/5-0-0-1/5-0-0-1/5-0-0-|

|----------------------|
|---4---4---3---3------|
|----------------------|
|-2---2---1---1--------|

|-----------------------------------------------------------------|
|-----------------------------------------------------------------|
|-----------------------------------------------------------------|
|-8--8888-7--7777-8--7--5--4--0-0-1-2-1-2-1~----1-2-1-2-1~--------|

|-------------------------------------------------------------------------|
|-------------------------------------------------------------------------|
|-----------------------------------8---8---------------------------------|
|-8--8888-7--7777-8--7--5--4--4-4-4---4---1/5-0-0-1/5-0-0-1/5-0-0-1/5-0-0-|

|----------------------|
|---4---4---3---3------|
|----------------------|
|-2---2---1---1--------|

|-----------------------------------------------------------------|
|-----------------------------------------------------------------|
|-----------------------------------------------------------------|
|-8--8888-7--7777-8--7--5--4--0-0---------------------------------|


|---------------|
|---------------|
|---------------|
|-1-2-1-2-1~----|x4

|---------------|
|---------------|
|---------------|
|-1-2-1-2-1-1---|x7

|----------------------|
|----------------------|
|---------6----6----6--|
|-1-2-1-2---5----5-----|


|-------------------------------------------------|
|---------------------------------5-----7-----8---|
|-----------------5-----7-----8-----6-5---6-5---6-|
|-1/5-0-0-1/5-0-0---6-5---6-5---6-----------------|

|-------------------------------------------------------------|
|-------------------------------------------------------------|
|------------------------------------000000000000000000000000-|
|-5-5--5-5-4--4-4-6--6-6-6--6-5-5--5--------------------------|
                                                                x2
|-------------------------------------------------------------|
|-------------------------------------------------------------|
|-------------------------------------------------------------|
|-5-5--5-5-4--4-4-6--6-6-6--6-1/5-0-0-1/5-0-0-1/5-0-0-1/5-0-0-|


|-----------------|
|-----------------|
|-----------------|
|-1/5-0-0-1/5-0-0-|x4

|-----------------------------|
|-----------------------4-----|
|-----------------/8-\4----4--|
|-5\4-0-2\1-0-1-0-------------|

|----------------------------------|__
|----------------------------4-----|  \
|-----------------8888-44444----4--|   \
|-5\4-0-2\1-0-1-0------------------|x2  \
                                       __x2
|----------------------------------|  /
|----------------------------------| /
|----------------------------------|/
|-5\4-0-2\1-0-1-0--0-11-0-5\4-00-0-|


|----------------------------------|
|----------------------------4-----|  
|-----------------8888-44444----4--|   
|-5\4-0-2\1-0-1-0------------------|x3

|-------------------------------------------------|
|-------------------------------------------------|
|-------------------------------------------------|
|-5\4-0-2\1-0-1-0-5\4-0-2\1-0-1-0~----------------|





Comments


Popular Between The Buried And Me tabs & chords
Aspirations Bass Tabs
Day I Tried To Live Bass Tabs
Naked By The Computer Intro Tabs
Prequel To The Sequel Intro Tabs
Prequel To The Sequel Intro 1 Tabs
Selkies The Endless Obsession Tabs
Selkies The Endless Obsession 4 Tabs
Selkies The Endless Obsession 5 Tabs
Shevanel Take 2 Tabs
Specular Reflection Tabs


Song lyrics



↑ Back to top | Tablatures and chords are parodies/interpretations of the original songs. You may use it for private study, scholarship, research or language learning purposes only
© 2014 AZChords.com Contact us | Privacy policy | DMCA | Add/correct tabs | Request tabs | Top 50 tabs