>
 >
Breathe In, Breathe Out

Breathe In, Breathe Out Guitar Tabs

Between The Buried And Me - Breathe In, Breathe Out chords, tabs, tablatures, lyrics

Guitar lessons | Add/correct | Request | Top 50 tabs Artists:  A B C D E F G H I J K L M N O P Q R S T U V W X Y Z 0-9

Breathe In, Breathe Out Guitar Tabs – Between The Buried And Me

CD, Sheet music, Poster

Do you like Breathe In, Breathe Out? Share with your friends now
Tabs
C#||---4---------------------------|---------------------------------|
G#||---7----9S--10S--7-------------|---------------------------------|
E ||*--6-----------------------9p--|--6------------------------------|
B ||*--7----------------9p--7------|-----9S--11S--9--7---------------|
F#||---4---------------------------|----------------------------12p--|
C#||-------------------------------|--------------------9h--10-------|


      T       T            T          T        T                           
  E   E   E   E   E    E   E   E      E    E   E    E   E   E   E    E     
----------------------------------|--12p--10-----------------------------||
-------------12p--5h--12--17--15--|--------------------------------------||
-----11p--6-----------------------|-------------------------------------*||
----------------------------------|-----------12S--11-------------------*||
--5-------------------------------|--(5)---------------12S--9------------||
----------------------------------|----------------------------10S--12---||


   T                             ^     T       T             T    
   E   E  E  E   E  E  E  E      Q     E   E   E    E    E   E    
--12--10---------------------|--------14p--9---------------------|
-----------------------------|--10------------14S--15S--10-------|
----------7--6---------------|--11-------------------------------|
---0-------------------------|--11--------------------------14p--|
----------------12--L--L--L--|---9-------------------------------|
-----------------------------|-----------------------------------|


       T             T            T      T                             
   E   E    E    E   E    E   E   E      E   E  E    E   E   E   Q     
------------------------------9------|--14----------------------------|
--------------------14p--10--10------|------------------10------10----|
------14S--13S--14-----------11--14--|--------------------------11----|
--11---------------------------------|----------9h--11------11--11----|
-------------------------------------|------16------------------------|
-------------------------------------|--------------------------------|


                                          T             T             
  E   E   E    E    E  E  E   E     Q     E    E    E   E    E    E   
------------------------------9--|-----------------------------------|
---------10--------12------------|-----------------------------------|
---------11----------------------|-------13S--14S--13----------------|
-----11------(11)---9-----9--11--|--9------------------12S--11S--12--|
--9----------------11-----7------|-----------------------------------|
---------------------------------|-----------------------------------|


   T     NH      NH         NH              T   T   T   T   
   E     Q       H          E     H         E   E   E   E   
-------------------------------|---------------------------|
--12--<>12---------------------|--7------------19------17--|
--------------<>19-------------|--6------------------------|
--------------------------<>5--|--7--------19------19------|
-------------------------------|--5------------------------|
-------------------------------|---------------------------|


                                        T   T   T   T           T              
  Q.      E   E   E   Q       H         E   E   E   E     Q     Q.     Q.      
---------------------------|---------------------------|----------------------|
--L------15--14--15--14----|--7------------19------17--|--L----17------L------|
---------------------------|--6------------------------|----------------------|
---------------------------|--7--------19------19------|--L----19------L------|
---------------------------|--5------------------------|----------------------|
---------------------------|---------------------------|----------------------|


      T           T                                              
  E   E  E    E   E  E  E  E     E   E   E   E   E   E   E   E   
------------------------------|---------------------------------|
------------------------------|---------------------------------|
------------8g9--14--9--------|-----18--10--18------10----------|
-----21--9--------------7--9--|-----------------11--------------|
------------------------------|-------------------------14--11--|
--7---------------------------|--9------------------------------|


  ^                  
  W                  
--2----------------||
--2----------------||
--3----------------||
--4----------------||
--4----------------||
--2----------------||




Duration Legend
---------------
W - whole
H - half
Q - quarter
E - 8th
S - 16th
T - 32nd
X - 64th
. - note dotted
|-n-|  - n-tuplets


Tablature Legend
----------------
L - tied note
x - dead note
g - grace note
(n) - ghost note
> - accentuded note
NH - natural harmonic
AH - artificial harmonic
TH - tapped harmonic
SH - semi harmonic
PH - pitch harmonic
h - hammer on
p - pull off
b - bend
br - bendRelease
pb - preBend
pbr - preBendRelease
brb - bendReleaseBend
\n/ - tremolo bar dip
\n - tremolo bar dive
-/n - tremolo bar Release up
/n\ - tremolo bar inverted dip
/n - tremolo bar return
-\n - tremolo bar Release down
S - shift slide
s - legato slide
/ -  slide into from below or out of upwards
\ -  slide into from above or out of downwards
~ - vibrato
W - wide vibrato
tr - trill
TP - tremolo picking
T - tapping
S - slap
P - pop
< - fade in
^ - brush up
v - brush down





Comments


Popular Between The Buried And Me tabs & chords
Arsonist Bass Tabs
Blackened Bass Tabs
Viridian 2 Bass Tabs
Camilla Rhodes 1 Tabs
Destructo Spin Tabs
Laser Speed 2 Tabs
Naked By The Computer Intro Tabs
Selkies The Endless Obesession Tabs
Shevanel Take 2 1 Tabs
What We Have Become Tabs


Song lyrics



↑ Back to top | Tablatures and chords are parodies/interpretations of the original songs. You may use it for private study, scholarship, research or language learning purposes only
© 2014 AZChords.com Contact us | Privacy policy | DMCA | Add/correct tabs | Request tabs | Top 50 tabs