>
 >
Blackened

Blackened Bass Tabs

Between The Buried And Me - Blackened chords, tabs, tablatures, lyrics

Guitar lessons | Add/correct | Request | Top 50 tabs Artists:  A B C D E F G H I J K L M N O P Q R S T U V W X Y Z 0-9

Blackened Bass Tabs – Between The Buried And Me

CD, Sheet music, Poster

Do you like Blackened? Share with your friends now
Bass Tabs
Tuning: C# Standard
high to low (E, B, F#, C#)


*This part is very slow and hard to hear, so listen very closly.
|---------4~----------------------------5~----7~----------|
|---------------------------------------------------2~----|
|---------2~----------------------------3~----5~----------|
|---------------------------------------------------0~----|

|-4~----5~----7~--------------4--5~----7~----------|
|-------------------2~----4-5----------------2~----|
|-2~----3~----5~--------------2--3~----5~----------|
|-------------------0~----2-3----------------0~----|

|-4~----5~----7~-------------------------------|
|-------------------2~-------------------------|
|-2~----3~----5~----------1-----2-33-----------|
|-------------------0~------2-3------1-0-----0-|

|---------------------------------|
|---------------------------------|
|---------------------------------|
|-3-33-3-0-3-3----3-33-3-0-2-2----|


|----------------------------------------------------------|
|----------------------------------------------------------|
|---7---7---7-8-7---7---7---7---7---7---7-8-7-------2-33---|
|-0---0---0-------0---0---6---0---0---0-------6-2-3------1-|x4


|-------------------------|
|-------------------------|
|-------------1-----2-1---|
|-0-0-0-0-0-0---2-3-----3-|x12


|----------------------------------------------------------|
|----------------------------------------------------------|
|---7---7---7-8-7---7---7---7---7---7---7-8-7-------2-33---|
|-0---0---0-------0---0---6---0---0---0-------6-2-3------1-|

|-------------------------------------|
|-------------------------------------|
|---7---7---7-8-7---7---7---7---------|
|-0---0---0-------0---0---6---0-0-0-0-|


|--------------------------------------------------------|
|--------------------------------------------------------|
|-7~-------0-0-5------3----------------------------------|
|-0~--------------3-3----3-3-2---2-2-2-2-0-33-3---33-3---|

|--------------------------------------------------------|
|--------------------------------------------------------|
|-7~-------0-0-5------3----------------------------------|
|-0~--------------3-3---3-3-2~---2-2-2-2-0-3-33-3-0-2-2--|


|-------------------------|
|-------------------------|
|-------------1-----2-1---|
|-0-0-0-0-0-0---2-3-----3-|x8


|----------------------------------------------------------|
|----------------------------------------------------------|
|---7---7---7-8-7---7---7---7---7---7---7-8-7-------2-33---|
|-0---0---0-------0---0---6---0---0---0-------6-2-3------1-|

|-------------------------------------|
|-------------------------------------|
|---7---7---7-8-7---7---7---7---------|
|-0---0---0-------0---0---6---0-0-0-0-|


|--------------------------------------------------------|
|--------------------------------------------------------|
|-7~-------0-0-5------3----------------------------------|
|-0~--------------3-3----3-3-2---2-2-2-2-0-33-3---33-3---|

|--------------------------------------------------------|
|--------------------------------------------------------|
|-7~-------0-0-5------3-3--------------------------------|
|-0~--------------3-3-----3-2~---2-2-2-2-0-3-33-3-0-2-2--|

|--------------------------------------------------------|
|--------------------------------------------------------|
|--------------------------------------------------------|
|-3-33-3-0-2-2----1-1----0~------------------------------|


|--------------------------------------------------------------|
|--------------------------------------------------------------|
|-------7-------------8-7---------------7-------------6~-------|
|-0-5-6---0-0-0-0-8-7-----0-0-0-0-0-5-6---0-0-0-0-5-6----------|

|--------------------------------------------------------------|
|---------------------8----------------------------------------|
|-------7---------7-----7---------------7-------------6~-------|
|-0-5-6---0-0-0-0---6-----0-0-0-0-0-5-6---0-0-0-0-6-0----------|

|--------------------------------------------------------------|
|--------------------------------------------------------------|
|---7-----7-7-7-----------7-7-7-0-7-------7-7-7---7-5-6~-------|
|-0---0---------5-7-6-0-------------6-0---------0--------------|

|--------------------------------------------------------------|
|---------4-------------5-4---------------4--------------------|
|-----2-3-------------2---------------2-3---------3-2----------|
|-0-2-------2-2-2-0-2-------2-2-2-0-2-------2-2-2-----3-1~-----|


|--------------------------------------------------------------|
|--------------------------------------------------------------|
|-------7-------------8-7---------------7-------------6~-------|
|-0-5-6---0-0-0-0-8-7-----0-0-0-0-0-5-6---0-0-0-0-5-6----------|

|-----------------------------------------------------|
|---------------------8-------------------------------|
|-------7---------7-----7---------------7-------------|
|-0-5-6---0-0-0-0---6-----0-0-0-0-0-5-6---0-0-0-0-6-0-|


|--------------------------------------------------------------|
|--------------------------------------------------------------|
|-6---6---6-----7-----7-7-7-0---------7-7-7---7-5-6~-----5-7---|
|---4---4---4-0---0-----------7-6-0---------0----------------6-|

|---------------------------------------------------------|
|---------------------------------------------------------|
|-----7-7-7-----------7-7-7-0-7-------7-7-7---7-5-6~------|
|-0---------5-7-6-0-------------6-0---------0-------------|

|-------------------------------------------------------------------|
|---------4-------------5-4---------------4-------------------3~----|
|-----2-3-------------2---------------2-3---------3-2---------------|
|-0-2-------2-2-2-0-2-------2-2-2-0-2-------2-2-2-----3-1~----------|

|-----------------------------------------------------|
|-----9---7-------------------------------------------|
|-7-----7-5-------------------7---5---3-3---2-2-------|
|-------------8-8---7-3-2-0-----5-----------------3-2-|

|--------------------------|
|-----------7--------------|
|-----7---5---3-3----2-----|
|-0-----5--------------3-2-|x3


|----------------------------------|
|------------------------------4-5-|
|-----------------------------2-3--|
|-0-3-0-2-0-3-0-2-0-3-0-2-0-3------|x6

|---------------------------------|
|---------------------------------|
|-----------------------------2-3-|
|-0-3-0-2-0-3-0-2-0-3-0-2-0-3-----|

|-----------------------------------------------|
|-----------------------------------------------|
|-----------------------------------------------|
|-----3-33-3-0-2-2-----3-33-3-0-2-2-----1-1-----|


|-99999999999999999999999999999999----------------------------------|
|----------------------------------77777777777777777777777777777777-|
|-------------------------------------------------------------------|
|-------------------------------------------------------------------|

|-----------------------------------------------------------------|
|-----------------------------------------------------------------|
|---8---8---8---8---7---7-----5-7---7---7---7---7---5---5---5---5-|
|-0---0---0---0---0---0---0-0-----0---0---0---0---0---0---0---0---|

|-------------------------------------------------|
|-------------------------------------------------|
|---8---8---8---8---7---7-----5-7-----------------|
|-0---0---0---0---0---0---0-0-----0-0-0-0-0-0-0-0-|

|--------------------------------------------------------|
|--------------------------------------------------------|
|-7~-------0-0-5------3----------------------------------|
|-0~--------------3-3----3-3-2---2-2-2-2-0-33-3---33-3---|

|--------------------------------------------------------|
|--------------------------------------------------------|
|-7~-------0-0-5------3-3--------------------------------|
|-0~--------------3-3-----3-2~---2-2-2-2-0-3-33-3-0-2-2--|

|-------------------------------------------------------------------|
|---------------------------------------------------5---5-----------|
|---7---7---7---7---7---7---7---7---5---5---5---5-3---3-------------|
|-0---0---0---6---5---5---5---5---3---3---3---3-----------3-3-3-3-3-|


|----------------------------------------------------------|
|----------------------------------------------------------|
|---7---7---7-8-7---7---7---7---7---7---7-8-7-------2-33---|
|-0---0---0-------0---0---6---0---0---0-------6-2-3------1-|x4


|-------------------------|
|-------------------------|
|-------------1-----2-1---|
|-0-0-0-0-0-0---2-3-----3-|x8


|----------------------------------------------------------|
|----------------------------------------------------------|
|---7---7---7-8-7---7---7---7---7---7---7-8-7-------2-33---|
|-0---0---0-------0---0---6---0---0---0-------6-2-3------1-|

|-------------------------------------|
|-------------------------------------|
|---7---7---7-8-7---7---7---7---------|
|-0---0---0-------0---0---6---0-0-0-0-|


|--------------------------------------------------------|
|--------------------------------------------------------|
|-7~-------0-0-5------3----------------------------------|
|-0~--------------3-3----3-3-2---2-2-2-2-0-33-3---33-3---|

|-----------------------------------------------------|
|-----------------------------------------------------|
|-7~-------0-0-5------3-3-----------------------------|
|-0~--------------3-3-----3-2~---2-2-2-2-0-3-33-3-3-3-|


|--------------------------------------------------------|
|--------------------------------------------------------|
|-7~-------0-0-5------3-3--------------------------------|
|-0~--------------3-3-----3-2~---2-2-2-2-0-3-33-3-0-2-2--|

|------------------------|
|------------------------|
|------------------------|
|-3-33-3-0-2-2----1-1----|

|-----------------------------|
|-----------------------------|
|---7---7---7-8-7---7---7-----|
|-0---0---0-------0---0---6-0-|





Comments


Popular Between The Buried And Me tabs & chords
Bicycle Race Bass Tabs
Prequel To The Sequel Bass Tabs
Foam Born A The Backtrack Drum Tabs
Ad A Dglgmut Tabs
Arsonist Intro Tabs
Croakies And Boatshoes Tabs
Desert Of Song Intro Tabs
Laser Speed 2 Tabs
Laser Speed Intro Tabs
White Walls Tabs


Song lyrics



↑ Back to top | Tablatures and chords are parodies/interpretations of the original songs. You may use it for private study, scholarship, research or language learning purposes only
© 2014 AZChords.com Contact us | Privacy policy | DMCA | Add/correct tabs | Request tabs | Top 50 tabs