>
 >
Backwards Marathon

Backwards Marathon Bass Tabs

Between The Buried And Me - Backwards Marathon chords, tabs, tablatures, lyrics

Guitar lessons | Add/correct | Request | Top 50 tabs Artists:  A B C D E F G H I J K L M N O P Q R S T U V W X Y Z 0-9

Backwards Marathon Bass Tabs – Between The Buried And Me

CD, Sheet music, Poster

Do you like Backwards Marathon? Share with your friends now
Bass TabsTabs
                              Backwards Marathon
                           Between the Buried and Me
			Words by Tommy Giles Rogers, Jr.
		       Music by Dan Briggs, Paul Waggoner

This is played on a five string bass by Dan Briggs of BTBAM. If something
doesn't sound 100% right, it's most likely because I transposed the parts played on the 
string an octave up, to make the song playable on a four string bass.


E ||-----------------------|-----------------------|----------------------|
B ||*----------------------|------------7--6--6----|----------------------|
F#||*--8---------8---------|--8--------------------|--8---------8---------|
C#||--------7---------7----|-------7---------------|-------7---------7----|

                                    4x
------------------------------------||---------------------------|
--7-10-7-------------------5-8-5---*||---------------------------|
---------9-6-----------4-7-------7-*||--4------------------------|
-------------8-5-0-3-6--------------||----6-3-0-4--1--0----------|


---------------------------|----------------------------|
---------------------------|--------------------3-2-----|
---------------------------|--4-----6---------------3-2-|
--6--3--1--4--0-3-6--1--3--|-----3-----5--6--3----------|


---------------------------|----------------------------|
---------------------------|----------------------------|
---------------------------|--4-----6-------------------|
--6--3--1--4--0-3-6--1--3--|-----3-----5--6-0-3-0-1-----|


---------------------------|----------------------------|
---------------------------|--------------------3-2-----|
---------------------------|--4-----6---------------3-2-|
--6--3--1--4--0-3-6--1--3--|-----3-----5--6--3----------|


---------------------------|----------------------------|
---------------------------|----------------------------|
---------------------------|--4-----6-------------------|
--6--3--1--4--0-3-6--1--3--|-----3-----5--6-0-3-0-1-----|


--------------------------|-------------------------|----------------------|
--------------------------|-------------------------|----------------------|
-----------2--1-----------|-------------------------|------------3---------|
--0--3--4--------0--1--4--|--3--0--1--0--3--4-------|--0----1---------4----|



---------------------------|----------------------|---------------------------|
---------------------------|----------------------|---------------------------|
------------2--3-2-1-------|------------3---------|------------2--3-2-1-------|
--1----4-------------3-2-1-|--0----1---------4----|--1----4-------------3-2-1-|


----------------------|---------------------------|
----------------------|---------------------------|
------------3---------|------------2--3-2-1-------|
--0----1---------4----|--1----4-------------3-2-1-|


----------------------------2--|--------------------|-------------------------|
-------------------------------|--4-----------------|-------------------------|
--4-3-2------------------2-----|-----3--------------|--------0----------------|
--------4-3-2-1-2-1--0-1-------|--------2-2-2-------|--4--1-----2--2--2--2----|


-------------------------|-------------------------|-------------------------|
-------------------------|-------------------------|-------------------------|
--------0----------------|--------0----------------|--------0----------------|
--4--1-----2--2--2--2----|--4--1-----2--2--2--2----|--4--1-----2--2--2--2----|



-------------------------|-------------------------|-------------------------|
-------------------------|-------------------------|-------------------------|
--------0----------------|--------0----------------|--------0----------------|
--4--1-----2--2--2--2----|--4--1-----2--2--2--2----|--4--1-----2--2--2--2----|



------------------------|-------------------------|-------------------------|
------------------------|-------------------------|-------------------------|
------------------------|--------0-----4--4--4----|--------0-----4--4--4----|
--4-----5---------------|--4--1-----2-------------|--4--1-----2-------------|


-------------------------|-------------------------|-------------------------|
-------------------------|-------------------------|-------------------------|
--------0-----4--4--4----|--------0-----4--4--4----|--------0-----4--4--4----|
--4--1-----2-------------|--4--1-----2-------------|--4--1-----2-------------|


-------------------------|-------------------------|--------------------------|
-------------------------|-------------------------|--------------------------|
--------0-----4--4--4----|--------0-----4--4--4----|-----------------------5--|
--4--1-----2-------------|--4--1-----2-------------|--4--1--5--2-----4--------|


-------------------|--------------------|----------------------------|
-------------------|--------------------|----------------------------|
--L----------------|--2-----------------|-----------------------4----|
-------------------|-----------4--------|-----------6-3-6-3-6-L----6-|


-------------------------------|--------------------------------|
-------------------------------|--------------------------------|
-----------4--7----------------|--4---------3-2-0-------3-L--2--|
--L-3--6-L--------3--6-3-6-3-6-|----6-5-3-2-------1-4-1---------|


------------------|--------------------------------|
------------------|--------------------------------|
--1---1---1-4-1---|--4---4---4------------------4--|
----3---3-------3-|----6---6---6-3-6-3-6-3-6-L-----|


----------------------------|--------------------------------|
----------------------------|--------------------------------|
-----------4--7-------------|--4---------3-2-0-------3-L--2--|
--6--3--6--------3--3-6-3-6-|----6-5-3-2-------1-4-1---------|


------------------|---------------------------------|
------------------|----5----------------------------|
--1---1---1-4-1---|--7---7-6---5-----------3-2------|
----3---3-------3-|----------7---7-6-5-3-2-----0-1--|


---------------------------------|-------------------------------|
---------------------------------|-------------------------------|
--4---4---4-----------------4----|-----------4--7----------------|
----6---6---6-3-6-3-6-3-6-L----6-|--L-3--6-L--------3--6-3-6-3-6-|


--------------------------------|------------------|
--------------------------------|------------------|
--4---------3-2-0-------3-L--2--|--1---1---1-4-1---|
----6-5-3-2-------1-4-1---------|----3---3-------3-|


--------------------------------|----------------------------|
--------------------------------|----------------------------|
--4---4---4------------------4--|-----------4--7-------------|
----6---6---6-3-6-3-6-3-6-L-----|--6--3--6--------3--3-6-3-6-|


--------------------------------|------------------|
--------------------------------|------------------|
--4---------3-2-0-------3-L--2--|--1---1---1-4-1---|
----6-5-3-2-------1-4-1---------|----3---3-------3-|


---------------------------------|---------------------------|
----5----------------------------|---------------------------|
--7---7-6---5-----------3-2------|---------------------------|
----------7---7-6-5-3-2-----0-1--|--0---------0---0---0------|


-----------------------------|--------------------------|
-----------------------------|--------------------------|
-------------2g5--2g5--L-----|-------2S--7--------------|
--3----5--6---------------0--|--L-----------0--3--L--0--|


                           |--3--|  |--3--|  |--3--|  |--3--|

------------------------|--------------------------------------|
------------------------|--------------------0--7--9--5--------|
-------2-----5----------|-----------0--6--9--------------6-----|
--L-------3-----4--L----|--0--5--7--------------------------5--|



-----------------------|--------------------------|------------------------|
-----------------------|--------------------------|------------------------|
-------4---------------|-------2S--7--------------|-------2-----5----------|
--3-------3--2----5----|--0-----------0--3--L--0--|--L-------3-----4--L----|


  |--3--|  |--3--|  |--3--|  |--3--|

--------------------------------------|-----------------------|
--------------------0--7--9--5--------|-----------------------|
-----------0--6--9--------------6-----|-------4---------------|
--0--5--7--------------------------5--|--3-------3--2----5----|



--------------------------|------------------------|
--------------------------|------------------------|
-------2S--7--------------|-------2-----5----------|
--0-----------0--3--L--0--|--L-------3-----4--L----|


  |--3--|  |--3--|  |--3--|  |--3--|

--------------------------------------|-----------------------|
--------------------0--7--9--5--------|-----------------------|
-----------0--6--9--------------6-----|-------4---------------|
--0--5--7--------------------------5--|--3-------3--2----5----|


--------------------------|------------------------|
--------------------------|------------------------|
-------2S--7--------------|-------2-----5----------|
--0-----------0--3--L--0--|--L-------3-----4--L----|


  |--3--|  |--3--|  |--3--|  |--3--|

--------------------------------------|-------------------------------|
--------------------0--7--9--5--------|-------------------------------|
-----------0--6--9--------------6-----|-------------------------------|
--0--5--7--------------------------5--|--3----5--6--7g10--7g10---L----|

------------||--------------------------------|-------------------------------|
------------||*--14------12---L---------------|--14------12---L---------------|
------------||*--------------------10----9----|--------------------10----9----|
--11--------||--------------------------------|-------------------------------|

                                                                             4x
-------------------------------|--------------------12--16--14---------------||
--14------12---L---------------|--14------12---L----------------16--14--12--*||
--------------------10----9----|--------------------------------------------*||
-------------------------------|---------------------------------------------||


--------------------------------|-------------------------------|
*--14------12---L---------------|--14------12---L---------------|
*--------------------10----9----|--------------------10----9----|
--------------------------------|-------------------------------|

                                                                             8x
-------------------------------|--------------------12--16--14---------------||
--14------12---L---------------|--14------12---L----------------16--14--12--*||
--------------------10----9----|--------------------------------------------*||
-------------------------------|---------------------------------------------||


--------------------------------------|--------------------17--14--14----|
----------14---L----------12----17----|--15------17---L------------------|
--12----------------10----------------|----------------------------------|
--------------------------------------|----------------------------------|



----------19---L----------------|--------------------17----------|
--17----------------14----12----|----------14---L----------14----|
--------------------------------|--12----------------------------|
--------------------------------|--------------------------------|


---------11---L----------------------||--------------------------------|
--9----------------12----10----12----||*--14------12---L---------------|
-------------------------------------||*--------------------10----9----|
-------------------------------------||--------------------------------|


-------------------------------|-------------------------------|
--14------12---L---------------|--14------12---L---------------|
--------------------10----9----|--------------------10----9----|
-------------------------------|-------------------------------|


                                             7x
--------------------12--16--14---------------||-------------------------------|
--14------12---L----------------16--14--12--*||--14------12---L---------------|
--------------------------------------------*||--------------------10----9----|
---------------------------------------------||-------------------------------|


-------------------------------|-------------------------------|
--14------12---L---------------|--14------12---L---------------|
--------------------10----9----|--------------------10----9----|
-------------------------------|-------------------------------|


------------------------------------|------------------------|
------------------------------------|---------------2--------|
--7------5--L----10--------9--7--5--|------------------------|
---------------------7--5-----------|--0---------------------|


--------------------------|---------------------------|
--0--------------0--------|---------------------------|
---------5----------------|--2------2-------2----2----|
--------------------------|---------------------------|


-------------------------------|---------------------------|
-------------------------------|---------------------------|
--3------3-------3--------3----|--7--------------7----9----|
-------------------------------|---------0--L--------------|


---------------------------|---------------------------|
---------------------------|---------------------------|
--5------5-------5----5----|--2------2-------2----2----|
---------------------------|---------------------------|


-------------------------------|----------------------------|
-------------------------------|----------------------------|
--3------3-------3--------3----|--0-------------------------|
-------------------------------|---------------3------------|


----------------------|-----------------------|----------------------|
----------------------|-----------------------|----------------------|
--8---------8---------|--8---------8--7--7----|--8---------8---------|
-------7---------7----|-------7---------------|-------7---------7----|


--------------------------|----------------------|-----------------------|
--------------------------|----------------------|-----------------------|
-----6--6--------5--5-----|--8---------8---------|--8---------8--7--7----|
--5--------5--4--------4--|-------7---------7----|-------7---------------|


----------------------|-------------------------||-----------------------|
----------------------|-------------------------||*----------------------|
--8---------8---------|-----6--6-----5----------||*--8---------8---------|
-------7---------7----|--5--------5-------------||--------7---------7----|


-----------------------|----------------------|
------------7--6--6----|----------------------|
--8--------------------|--8---------8---------|
-------7---------------|-------7---------7----|

                                    4x
------------------------------------||----------------------------|
--7-10-7-------------------5-8-5---*||----------------------------|
---------9-6-----------4-7-------7-*||--4----------------1--4--0--|
-------------8-5-0-3-6--------------||----6-3-0-4--1--0-----------|


-----------------------|-----------------------|---------------------|
-----------------------|------------4----------|----------------5----|
-----------------------|-----------------------|-----------5---------|
-----------------0--2--|--L----2---------2--3--|--L------------------|


----------------------|----------------------|----------------------|
-----------4----------|------------7----5----|-----------4----------|
----------------------|-------5--------------|----------------------|
--2-------------2--3--|--L-------------------|--2-------------2--3--|


---------------------|--2-3-2-0-------------------|-----------------------|
----------------5----|----------4--0--------------|------------4----------|
-----------5---------|----------------1-----------|-----------------------|
--L------------------|-------------------3--0--2--|--L----2---------2--3--|


---------------------|----------------------|----------------------|
----------------5----|-----------4----------|------------7----5----|
-----------5---------|----------------------|-------5--------------|
--L------------------|--2-------------2--3--|--L-------------------|


----------------------|---------------------|-----------------------|
-----------4----------|----------------5----|-----------------------|
----------------------|-----------5---------|--------------------5--|
--2-------------2--3--|--L------------------|-----------------0-----|


----------------------|---------------------|----------------------|
-----------0----------|---------------------|-----------0----------|
--L-------------5-----|---------------------|--5-------------5-----|
-------------------3--|--L--------3----3----|-------------------3--|


---------------------|----------------------|---------------------|
---------------------|-----------0----------|----------------5----|
---------------------|--5-------------5-----|-----------5---------|
--L--------5----3----|-------------------3--|--L------------------|


--2-3-2-0-------------------|-----------------------|---------------------|
----------4--0--------------|------------4----------|----------------5----|
----------------1-----------|-----------------------|-----------5---------|
-------------------3--0--2--|--L----2---------2--3--|--L------------------|


----------------------|----------------------|----------------------|
-----------4----------|------------7----5----|-----------4----------|
----------------------|-------5--------------|----------------------|
--2-------------2--3--|--L-------------------|--2-------------2--3--|


---------------------|--2-3-2-0-------------------|----------------------|
----------------5----|----------4--0--------------|-----------0----------|
-----------5---------|----------------1--------5--|----------------5-----|
--L------------------|-------------------3--0-----|-------------------3--|


---------------------|----------------------|---------------------|
---------------------|-----------0----------|---------------------|
---------------------|--5-------------5-----|---------------------|
--3--------3----3----|-------------------3--|--L--------5----3----|


----------------------|---------------------|--2-3-2-0-------------------|
-----------0----------|----------------5----|----------4--0--------------|
--5-------------5-----|-----------5---------|----------------1-----------|
-------------------3--|--3------------------|-------------------3--0--2--|


-----------------------|---------------------|----------------------|
------------4----------|----------------5----|-----------4----------|
-----------------------|-----------5---------|----------------------|
--L----2---------2--3--|--L------------------|--2-------------2--3--|


----------------------|----------------------|---------------------|
------------7----5----|-----------4----------|----------------5----|
-------5--------------|----------------------|-----------5---------|
--L-------------------|--2-------------2--3--|--L------------------|


--2-3-2-0-------------------|-------------------||
----------4--0--------------|-------------------||
----------------1--------5--|--L----------------||
-------------------3--0-----|-------------------||


Duration Legend
---------------
W - whole
H - half
Q - quarter
E - 8th
S - 16th
T - 32nd
X - 64th
. - note dotted
|-n-|  - n-tuplets


Tablature Legend
----------------
L - tied note
x - dead note
g - grace note
(n) - ghost note
> - accentuded note
NH - natural harmonic
AH - artificial harmonic
TH - tapped harmonic
SH - semi harmonic
PH - pitch harmonic
h - hammer on
p - pull off
b - bend
br - bendRelease
pb - preBend
pbr - preBendRelease
brb - bendReleaseBend
\n/ - tremolo bar dip
\n - tremolo bar dive
-/n - tremolo bar Release up
/n\ - tremolo bar inverted dip
/n - tremolo bar return
-\n - tremolo bar Release down
S - shift slide
s - legato slide
/ -  slide into from below or out of upwards
\ -  slide into from above or out of downwards
~ - vibrato
W - wide vibrato
tr - trill
TP - tremolo picking
T - tapping
S - slap
P - pop
< - fade in
^ - brush up
v - brush down





Comments


Popular Between The Buried And Me tabs & chords
Colorblind Bass Tabs
Croakies And Boatshoes 2 Bass Tabs
Primer Bass Tabs
Shevanel Take 2 Chords
Backwards Marathon Tabs
Camilla Rhodes Tabs
Desert Of Song 3 Tabs
Mordecai 1 Tabs
Naked By The Computer Tabs
Need For Repetition 1 Tabs


Song lyrics



↑ Back to top | Tablatures and chords are parodies/interpretations of the original songs. You may use it for private study, scholarship, research or language learning purposes only
© 2014 AZChords.com Contact us | Privacy policy | DMCA | Add/correct tabs | Request tabs | Top 50 tabs