» » »

Between The Buried And Me, Autodidact Tabs (ver.1)

Artists:  A B C D E F G H I J K L M N O P Q R S T U V W X Y Z # 

Autodidact Tabs (ver.1)

Between The Buried And Me Tabs
 Rating:
3.3/5 (6 votes)
Autodidact lessons Tabs too difficult? Try these video lessons and learn fast
                (Intro)
Tuning-Drop D down a half-step (Drop Db)
Eb
Bb
Gb
Db
Ab
Db

h = hammer on
p = pull-off
... = palm mute

|---------------------------------------------------------------------------|
|---------------------------------------------------------------------------|
|---------------------------------------------------------------------------|
|-----------------------------------------------------------2-5-------------|
|---5--5-5p4----1---4-5--8--5-5h8p5--------1----1---1----1-4----------------|
|-00-00------0-1--00---00-00-------9-6-9-----3-0-3-0-3-0--------------------|
                                           .............

|---------------------------------------------------------------------------|
|---------------------------------------------------------------------------|
|---------------------------------------------------------------------------|
|-----------------------------------------------------------2-5-------------|
|---5--5-5p4----1---4-5--8--5-5h8p5--------1----1---1----1-4----------------|
|-00-00------0-1--00---00-00-------9-6-9-----3-0-3-0-3-0--------------------|
                                           .............

|---------------------------------------------------------------------------|
|---------------------------------------------------------------------------|
|---------------------------------------------------------------------------|
|---------------------------------------------------------2-5---------------|
|----1---1---1---1---1---1-5-5h8p5-------1----1---1----1-4------------------|
|-3-0-3-0-3-0-3-0-3-0-3-0---------9-6-9----3-0-3-0-3-0----------------------|
  ........................               .............

|---------------------------------------------------------------------------|
|---------------------------------------------------------------------------|
|---------------------------------------------------------------------------|
|----------------------------------------------------------0--3--0--3-------|
|---4-5--5--4-5--5--4-5--5--4-5--5--4-5--5--4-5--5--4-5--5-0--3--0--1-------|
|-00---00-00---00-00---00-00---00-00---00-00---00-00---00--0--3--0----------|
  ....... ....... ....... ....... ....... ....... .......

|---------------------------------------------------------------------------|
|---------------------------------------------------------------------------|
|---------------------------------------------------------------------------|
|---0h3p0--------------0h3p0------------------------------------------------|
|-0------1p0-------0-0------1p0---------------------------------------------|
|-0---------3p1p0--0-0---------3p1p0----------------------------------------|
  .                ...
            
Submit corrections

comments powered by Disqus
↑ Back to top | Between The Buried And Me Tabs for Autodidact. Lyrics for acoustic guitar and electric guitar. Tablatures and chords are parodies/interpretations of the original songs. You may use it for private study, scholarship, research or language learning purposes only