>
 >
Aspirations

Aspirations Bass Tabs

Between The Buried And Me - Aspirations chords, tabs, tablatures, lyrics

Guitar lessons | Add/correct | Request | Top 50 tabs Artists:  A B C D E F G H I J K L M N O P Q R S T U V W X Y Z 0-9

Aspirations Bass Tabs – Between The Buried And Me

CD, Sheet music, Poster

Do you like Aspirations? Share with your friends now
Bass Tabs
Between The Buried And Me
Drop D Tuning: GDAD


0:02
G|-------------------------------------|
D|-------------------------------------|
A|-------------------------------------|
D|0--0---4--2-1h2-2-210-1-2-xxx0-xxx1--|x4


0:23
G|-----------------------------|
D|-----------------------------|
A|-----------------------------|
D|0000-0000-0000-5----5-0-3-0--|


0:27
G|-------------------------------------------------|
D|-------------------------------------------------|
A|-------------------------------------------------|
D|3-0-0-0-0-0-5-0-0-0-0-0-3-0-0-0-0-0-5-0-0-0-0-0--|x2


0:39
G|-------------------------|
D|-------------------------|
A|-------------------------|
D|5-0-3-0-0-0-5-0-3-0-0-0--|x4


0:54
G|----------------------------------------------------------------|
D|--------------------------------------------------------9h10p7--|
A|-------------------------------------666666-7777779h10p7--------|
D|5-3-2-3-2-0--000000000-000000000-1--0------0--------------------|x2

G|----------------------------------------------------------------|
D|----------------------------------------------------------------|
A|----------------------------------------------------------------|
D|5-3-2-3-2-0--000000000-000000000-1------------------------------|

G|-------------------|
D|-------------------|
A|-------------------|
D|5-3-2-3-2-0-4-3-1--|


1:17
G|--6-------8---6------------------6-------8---6----------------|
D|------6-----------8---6--------------6-----------8-------6----|
A|8---8---8---8---8---8---8-6-4--8---8---8---8---8---8-6-8---8--|
D|--------------------------------------------------------------|

G|--6-------8---6------------------5h6-5---5h6-5----------------|
D|------6-----------8---6--------------------------8-------6----|
A|8---8---8---8---8---8---8-6-8--8-------8-------8---8-6-8---8--|
D|--------------------------------------------------------------|


1:37
G|--------------------|
D|5~------------------|
A|------7~----9~--7~--|
D|--------------------|


1:48
G|-----------------[10]----|
D|------13----11----15-----|
A|---11----11----11----11--|
D|11-----------------------|x2

G|-------------------------|
D|------------14-----------|
A|15-12-14-12----12-14-12--|
D|-------------------------|x2

G|------------[8]----|
D|----11---9---13----|
A|--9----9---9----9--|
D|9------------------|X2

G|-------------------|
D|-------------------|
A|--9-12-9---9-12-9--|
D|9--------9---------|X2

G|-----------[6]----|
D|----9---7---11----|
A|--7---7---7----7--|
D|7-----------------|X2

G|-------------------|
D|-------------------|
A|--7-10-7---7-10-7--|
D|7--------7---------|X2

G|-----------------------------------------------------------------|
D|----8P7-----8P7-----6P5-----6P5-----4-------4-------3-0---3-0-3--|
A|--7-------7-------5-------5-------2---4---2---4---0--------------|
D|7-------7-------5-------5-------2-------2-------0-------0--------|


2:19
G|-------------------------------------------------------|
D|-------------------------------------------------------|
A|------------------------3-3-3-2-2-2--3-----4-5---------|
D|6-6-6-4-4-4-2-2-2-1-1-1---------------------------3-4--|


2:30
G|--------------------------|
D|--------------------------|
A|5--5-5-5--------5--5-5-5--|
D|--------------------------|

G|----------------------------------|
D|------------3-2-------------3-2---|
A|5--5-5-5--3-----5--5-5-5--3-------|
D|----------------------------------|

G|---------------------------------|
D|------------3-2-------------3-2--|
A|555555555-3-----555555555-3------|
D|---------------------------------|x2


2:51
G|------------------------------------------------------------------------|
D|------------------------------------------------------------------------|
A|5555555-3---2--------------------------------------------------3-----1--|
D|---------030----5-0h2h3-1-0---------3-0-1-2--------333-0-1-2-1---3-0----|

G|--------------------------------------------------------|
D|------222-000-------------------------------------------|
A|--------------3----------1---------1-------1---------1--|
D|0-1-2--------------0-1-2---000-000---0-1-2---000-000----|

3:09
G|-----------------------------------------------------------------|
D|-----------------------------------------------------------------|
A|3-------1-----3-------1------3------1-------3-------1------------|
D|--5-0-2---012---5-0-2---2222---2222---2-5-2---5-0-2---2222-2222--|


3:19
G|----------------------------------------------|
D|----------------------------------------------|
A|-----------------------------1----------------|
D|6-0-0000-3-2-0-3--2--1-0-1-0---0000-3-0-3202--|x4

G|----|
D|----|
A|----|
D|-0--|


3:59
G|---------------------------3------------------------------|
D|---------------1----------------------0-1----------0------|
A|------------0h1---1--0--1-------2h3-2---------1--23--0-1--|
D|5---3--(1)--------------------0---------------------------|

G|---------------------------3-------------------------2-3--|
D|---------------1----------------------0-1----------0------|
A|------------0h1---1--0--1-------2h3-2---------1--23-------|
D|5---3---1---------------------0---------------------------|


4:39
G|--------------------------------------|
D|--------------------------------------|
A|--------------------1--1-0--0-1--1-1--|
D|5--5-3--3-1--1-1--1-------------------|x2

G|--------------------------------------|
D|--------------------------------------|
A|--------------------1-1110-000-1-1-1--|
D|5-5553-3331-1111-111------------------|x2

G|----------------------------------------|
D|----------------------------------------|
A|----------------------------------------|
D|5--5-3--3-1--1-3--3-5--5-3--3-1--1-0-0--|


5:17   
G|----------------------------------------------------10h12p10-------------|
D|------12----13----10----9----9h11-------10----12------------13-12-10-12--|
A|10-10----10----10----10---10------10-10----10----10----------------------|
D|-------------------------------------------------------------------------|

G|-----------------------------------------------------------------------|
D|-----------------------------------------------------------------------|
A|1-1111-0-0000-1-1111111111-1-1111-0-00000-1-111111111------------------|
D|------------------------------------------------------5-5555-3-3333-5--|


<3





Comments


Popular Between The Buried And Me tabs & chords
Camilla Rhodes Bass Tabs
Desert Of Song Chords
Ad A Dglgmut Tabs
Ants Of The Sky 3 Tabs
Disease Injury Madness Tabs
Lost Perfections A And B Tabs
Naked By The Computer Tabs
Naked By The Computer Intro 1 Tabs
Sun Of Nothing Tabs
Swim To The Moon Intro Tabs


Song lyrics



↑ Back to top | Tablatures and chords are parodies/interpretations of the original songs. You may use it for private study, scholarship, research or language learning purposes only
© 2014 AZChords.com Contact us | Privacy policy | DMCA | Add/correct tabs | Request tabs | Top 50 tabs