» » »

Between The Buried And Me, Alaska Tabs (ver.5)

Artists:  A B C D E F G H I J K L M N O P Q R S T U V W X Y Z # 

Alaska Tabs (ver.5)

Between The Buried And Me Tabs
 Rating:
4/5 (14 votes)
Alaska lessons Tabs too difficult? Try these video lessons and learn fast
1
                (Intro)
Tuning Db Gb B E Ab Db
Between The Buried And Me
Alaska

THis intro should be 100% write

Db|------------7-12/-15-12--------------------------14-17-19-15-------|
Ab|----------8-------------13--------------------15-------------------|
E |--------9------------------12--------------14----------------------|
B |------9-----------------------14-10/-12-16-------------------------|
Gb|-7-10--------------------------------------------------------------|
Db|-------------------------------------------------------------------|

Db|----------------------------20-19-17-------------------------------|
Ab|-17----------------15-17-19----------20-19-17-16-17-19-17-16-------|
E |----16----14-16-17-------------------------------------------17-16-|
B |-------17----------------------------------------------------------|
Gb|-------------------------------------------------------------------|
Db|-------------------------------------------------------------------|

Db|-----------------------------------------------------------------|
Ab|-----------------------------------------------------------------|
E |------------------------------------12---------------------------|
B |---17-19-17-------------------9----------------------------------|
Gb|-------------18-19------7----------------------------------------|
Db|-----------------------------------------------------------------|

Db|---------712t1512--7---------------------------------------------|
Ab|-------8-------------8-------------------------------------------|
E |-----9-----------------9-----------------------------------------|
B |---9---------------------9---------------------------------------|
Gb|---------------------------10-7----------------------------------|
Db|-----------------------------------------------------------------|


Db|------------------------------15-14-11h12p11---------------------|
Ab|--------------7-8-13-12----12----------------12-----------12-13--|
E |---------8--------------12----------------------11-----12--------|
B |-----9-----99---------------------------------------14-----------|
Gb|-777---7---------------------------------------------------------|
Db|-----------------------------------------------------------------|


Db|----------------------14h15p14-----------10-14-17\---------------|
Ab|--12-----15/--17----------------------12-------------------------|
E |-----12-----------12------------14-12----------------------------|
B |-----------------------------------------------------------------|
Gb|-----------------------------------------------------------------|
Db|-----------------------------------------------------------------|


Db|------------------------------15-14-11h12p11---------------------|
Ab|--------------7-8-13-12----12----------------12-----------12-13--|
E |---------8--------------12----------------------11-----12--------|
B |-----9-----99---------------------------------------14-----------|
Gb|-777---7---------------------------------------------------------|
Db|-----------------------------------------------------------------|


Db|----------------------14h15p14-----------10-14-17\---------------|
Ab|--12-----15/--17----------------------12-------------------------|
E |-----12-----------12------------14-12----------------------------|
B |-----------------------------------------------------------------|
Gb|-----------------------------------------------------------------|
Db|-----------------------------------------------------------------|


Db|------------------------------15-14-11h12p11---------------------|
Ab|--------------7-8-13-12----12----------------12-----------12-13--|
E |---------8--------------12----------------------11-----12--------|
B |-----9-----99---------------------------------------14-----------|
Gb|-777---7---------------------------------------------------------|
Db|-----------------------------------------------------------------|


Db|----------------------14h15p14-----------10-14-17\---------------|
Ab|--12-----15/--17----------------------12-------------------------|
E |-----12-----------12------------14-12----------------------------|
B |-----------------------------------------------------------------|
Gb|-----------------------------------------------------------------|
Db|-----------------------------------------------------------------|


Db|------------------------------15-14-11h12p11---------------------|
Ab|--------------7-8-13-12----12----------------12-----------12-13--|
E |---------8--------------12----------------------11-----12--------|
B |-----9-----99---------------------------------------14-----------|
Gb|-777---7---------------------------------------------------------|
Db|-----------------------------------------------------------------|


Db|----------------------14h15p14-----------10-14-17\---------------|
Ab|--12-----15/--17----------------------12-------------------------|
E |-----12-----------12------------14-12----------------------------|
B |-----------------------------------------------------------------|
Gb|-----------------------------------------------------------------|
Db|-----------------------------------------------------------------|

 thats it
            
Submit corrections

comments powered by Disqus
↑ Back to top | Between The Buried And Me Tabs for Alaska. Lyrics for acoustic guitar and electric guitar. 1 Tablatures and chords are parodies/interpretations of the original songs. You may use it for private study, scholarship, research or language learning purposes only