>
 >
Aesthetic

Aesthetic Bass Tabs

Between The Buried And Me - Aesthetic chords, tabs, tablatures, lyrics

Guitar lessons | Add/correct | Request | Top 50 tabs Artists:  A B C D E F G H I J K L M N O P Q R S T U V W X Y Z 0-9

Aesthetic Bass Tabs – Between The Buried And Me

CD, Sheet music, Poster

Do you like Aesthetic? Share with your friends now
Bass TabsTabs
Tuning: C# Standard
high to low (E, B, F#, C#)


|----------------------------------|
|----------------------------------|
|----------------------------------|
|-00---0000--0000---0-00---0000000-|
                                                 x4
|---------------------------------------------|
|-2-0-----------------------------------------|
|-----3-2-0---2fb------032----------------232-|
|-----------3-----0---2---2---0000--3333------|

|------------------|
|------------------|
|------------------|
|-000--6-5--0000-0-|


|---------------------------------|
|---------------5-----4-----------|
|-----------------6-6---5-7-4---3-|
|-3--0000-6-5---------------------|
                                    x2
|-------------------------------|
|-------------------------------|
|-------2----------5--------3---|
|-3-4-----4-3--336---6--225---5-|


|---------------------------------------|
|------------5--------5-----4-----------|
|-3------565------------6-6---5-7-4---3-|
|----0000-------6-5---------------------|

|-------------------------------|
|-------------------------------|
|-------2----------5--------3---|
|-3-4-----4-3--336---6--225---5-|


|---------------------------------|
|---------------5-----4-----------|
|-----------------6-6---5-7-4---3-|
|-3--0000-6-5---------------------|

|-------------------------------|
|-------------------------------|
|-------2----------5--------3---|
|-3-4-----4-3--336---6--225---5-|

|----------------------------------|
|------------5---------------------|
|-3------565----3-------2----------|
|----0000----------4--3---3-2-1-00-|


|------------------------------------------------|
|------------------------------------------------|
|-------------------------------------------0022-|
|-00-0-0-0--0-0-6\0-0-1-0--4-4-4--0000-3333------|


|---------------------------------------------|
|---------------------------------------------|
|---------------------------------------------|
|-0-0---0-0-0-0---0--00---0-0----0--0-0---0-0-|x4

|---------------------------------------------|
|---------------------------------------------|
|--------------------6----7---------------3-2-|
|-0-0---0-0-0-0---7---8-----5----2--5-3-------|

|---------------------------------------------|
|---------------------------------------------|
|---------------------------------------------|
|-0-0---0-0-0-0---0--00---0-0----0--0-0---0-0-|x2

|------------------------------------------------|
|------------------------------------------------|
|----------------------------7------------6----6-|
|-0-0---0-0-0-0--1-0-4-0-3-6---6--0----0---------|


|------------------------------------|
|-8---8-11-8---8---8-11-8------------|
|---7--------7---7--------7---10---7-|
|---------------------------9----6---|
                                        x2
|----------------------------------|
|----------------------------------|
|-7---7-10-7---7---6---6-9-6---6---|
|---6--------6---6---5-------5---5-|

|----------------|
|----------------|
|-5-4-2-1---4----|
|---------3------|

|-------------------------------------------------|
|-------------------------------------------------|
|-3---3-6-3---3---3-6-3---3---3-6---------6-5-3-4-|
|---2-------2---2-------2---2-----2-1-0-3---------|

|-------------------------------------------------|
|-------------------------------------------------|
|-3---3-6-3---3---3-6-3-----------6-5-3-4-1-0-1-4-|
|---2-------2---2-------2-2-1-0-3-----------------|

|-------------------------------------------------------------------------|
|-----------------------------------------------------------1-------------|
|-5---5-8-5---6---6-9-6---6h7p6---2h3p2-----------666-2-0-0---0-1-0---4-4-|
|---4-------4---5-------5-------8-------4-000-333-------------------3-----|


|-------------------------------------------------------------|
|-------------7---------------------------7-------------------|
|---------------6---------7-----------------6---------7-------|
|-3-4-0-1-7-4-----3-4-0-1---6-3-4-0-1-7-4-----3-4-0-1---6-3-0-|

|-------------------------------------------------------------|
|-------------7-----------------------------------------------|
|---------------6---------7---------------------------7-------|
|-3-4-0-1-7-4-----3-4-0-1---6-3-4-0-1-3-4-0-1-3-4-0-1---6-3-0-|

|-------------------------------------------------------------|
|-------------7---------------------------7-------------------|
|---------------6---------7-----------------6---------7-------|
|-3-4-0-1-7-4-----3-4-0-1---6-3-4-0-1-7-4-----3-4-0-1---6-3-0-|

|-------------------------------------------------------------|
|-------------7-----------------------------------------------|
|---------------6---------7-------------------7-7-10--9-------|
|-3-4-0-1-7-4-----3-4-0-1---6-3-4-0-1-3-4-0-1--6-------107-6--|


|----------------------------------|
|----------------------------------|
|---------6-7-10-7-6-7-6-----------|
|-5-4-5-8----------------8-7-8-7-4-|

|-----------------------------------------------------|
|-----2-6-2---0-3-7-7-7-3-------------------6--6-9----|
|-0-3-------3-------------------3-5-------08-08-------|
|-------------------------4-5-7-----4-5---------------|


|-------------|
|-------------|
|-3---3-6-3---|
|---2-------2-|x14

|-------------------------------------------------|
|-------------------------5---5-8-5---5---5-8-5---|
|---------6-5-3-4-1-0-1-4---4-------4---4-------4-|
|-1-0-3-4-----------------------------------------|

|---------7-10-7-6-9-6-5-8-5-4-7-4-----|
|-6---6-9--------------------------6-3-|
|---5----------------------------------|
|--------------------------------------|


|---------------------------------------------------------------|
|-2----------0--3-5-----2-3--0----------------------------------|
|----0--3-1----------3----------1-------3-5-------7-------------|
|---------------------------------1--5-------3--6----6--0-1~----|

|--------------------------------------------------------------------|
|----0--3-2-------0--3--575-----5-3-----3-2--------------------------|
|-1----------0--3------------3-------0-------1----5--5-5-5-5-5-5-5-5-|
|-----------------------------------------------3--------------------|

|---------------------------------------------------------------|
|-2----------0--3-5-----2-3--0----------------------------------|
|----0--3-1----------3----------1-------3-5-------7-------------|
|---------------------------------1--5-------3--6----6--0-1~----|

|---------------------------------------------------------------------|
|----0--3-2-------0--3--575-----5-3-----3-2---------------------------|
|-1----------0--3------------3-------0-------1----5--5-5-5-5-5-5-5-5\-|
|-----------------------------------------------3---------------------|

|---------------------------------------------|
|---------------------------------------------|
|-5-----4-----3--------2-----------------0002-|
|---6-5---5-4----4--3----3-2-1-0000-3333------|


|---------------------------------------------|
|---------------------------------------------|
|---------------------------------------------|
|-0-0---0-0-0-0---0--00---0-0----0--0-0---0-0-|x4


|----------------------------------------------------------------|
|----------------------------------------------------------------|
|--------------------------032-------------232-------------------|
|-0-0---0-0-0-0--1-0-4-0--2---2--0000-3333------000--6-5--0000-0-|





Comments


Popular Between The Buried And Me tabs & chords
Colorblind Bass Tabs
Prequel To The Sequel Bass Tabs
Viridian 2 Bass Tabs
Alaska Tabs
Alaska 2 Tabs
Ants Of The Sky 3 Tabs
Breathe In, Breathe Out Tabs
Decade Of Statues Tabs
Desert Of Song 2 Tabs
Shevanel Take 2 1 Tabs


Song lyrics



↑ Back to top | Tablatures and chords are parodies/interpretations of the original songs. You may use it for private study, scholarship, research or language learning purposes only
© 2014 AZChords.com Contact us | Privacy policy | DMCA | Add/correct tabs | Request tabs | Top 50 tabs