» » »

Dust Bunnies Tabs (ver.1)

Artists:  A B C D E F G H I J K L M N O P Q R S T U V W X Y Z # 

Dust Bunnies Tabs (ver.1)

Bettie Serveert
Rating:
0/5 (0 votes)

Hard to play? Try these video lessons and learn fast.
                -------------------------------------------------------------------------------
-------------------------------------------------------------------------------

Tuning: Standard

e|-----2-2-----0-0-----0--------------------------|
B|-----3-3-----3-3-----3--------------------------|
G|-----2-2-----2-2-----0--------------------------|
D|-0-0-0-0-----0-0-----0--0-2-3-2-3---------------|  4X
A|---------3-3-----2-2----------------------------|
E|------------------------------------------------|

Pass the cracks on every weird occasion,
You keep your fingers crossed at any time.
If i were you i could come up with more solutions

C   G
why. You put your foot down.

e|-------------------------|
B|-------------------------|
G|-------------------------|
D|-0-2-3-2-3---------------|
A|-------------------------|
E|-------------------------|


e|-----2-2-----0-0-----0--------------------------|
B|-----3-3-----3-3-----3--------------------------|
G|-----2-2-----2-2-----0--------------------------|
D|-0-0-0-0-----0-0-----0--0-2-3-2-3---------------| 4X
A|---------3-3-----2-2----------------------------|
E|------------------------------------------------|

Counting feels like something to hang on to,
You find the number, try to break the code.
I guess by now you figured out there's no conclusion

C   G
why. You put your foot down.

e|-------------------------|
B|-------------------------|
G|-------------------------|
D|-0-2-3-2-3---------------|
A|-------------------------|
E|-------------------------|


e|-----2-2-----0-0-----0--------------------------|
B|-----3-3-----3-3-----3--------------------------|
G|-----2-2-----2-2-----0--------------------------|
D|-0-0-0-0-----0-0-----0--0-2-3-2-3---------------| 4X
A|---------3-3-----2-2----------------------------|
E|------------------------------------------------|

You're nine years old, your body's cold.

D                  C                   G        A
And underneath the bed the world seems grey.
D                    C              G           A
The pain inside your head has gone away.

e|-------------------------|
B|-------------------------|
G|-------------------------|
D|-0-2-3-2-3---------------|
A|-------------------------|
E|-------------------------|

e|-----2-2-----0-0-----0--------------------------|
B|-----3-3-----3-3-----3--------------------------|
G|-----2-2-----2-2-----0--------------------------|
D|-0-0-0-0-----0-0-----0--0-2-3-2-3---------------| Fade out
A|---------3-3-----2-2----------------------------|
E|------------------------------------------------|

| /  slide up
| \  slide down
| h  hammer-on
| p  pull-off
| ~  vibrato
| +  harmonic
| x  Mute note
===============================================================================
            
Hard to play? Try these video lessons and learn fast. | Correct




comments powered by Disqus
↑ Back to top | Tablatures and chords are parodies/interpretations of the original songs. You may use it for private study, scholarship, research or language learning purposes only