>
 >
The Principles And Practices Of Embalming

The Principles And Practices Of Embalming Guitar Tabs

Berzerker - The Principles And Practices Of Embalming chords, tabs, tablatures, lyrics

Guitar lessons | Add/correct | Request | Top 50 tabs Artists:  A B C D E F G H I J K L M N O P Q R S T U V W X Y Z 0-9

The Principles And Practices Of Embalming Guitar Tabs – Berzerker

CD, Sheet music, Poster

Do you like The Principles And Practices Of Embalming? Share with your friends now
Tabs
  - palm mute           /  - slide up to
\  - slide down to       ~  - vibrato
h  - hammer on           b  - Bend
p  - pull off            Suffixes for bend
t  - tap                 f  - full bend    h - half bend
ph - pinched harmonic    q  - quarter bend t - tap bend
*  - see comment         ^  - Hold bend    r release bend
x  - Stuccatto           ~  - vibrato bend
,  - slight palm mute    () - ghost note, sustained note
"  - tremolo note        <> - Trill


Guitar I - A,D,G,C,E,A



Riff I

|-------|------------------------------|-------------------------|
|-------|------------------------------|-------------------------|
|-------|------------------------------|-------------------------|
|-7\\\\-|-------2"-1"---------------5"-|-------2"-1"----5"----3"-|
|-7\\\\-|-222-2-------2"-0---0'2'3'----|-222-2-------2"----3"----|
|-7\\\\-|-000-0------------------------|-000-0-------------------|

Riff II

|--------------------------|--------------------------------|
|--------------------------|--------------------------------|
|--------------------------|--------------------------7-5---|
|-7"-5"----5"-7"-5"'-------|-7"-5"-----5'-7'-5'-------7-5-7-|
|-------8"-----------8"-7"-|-------8"-----------8"-7"-5-3-7-|
|--------------------------|------------------------------5-|
                                                      ; ; ;

Riff III

|-------------|---------------------|-----------|
|-------------|---------------------|-----------|
|------H------|---------------------|-8br---5-4-|
|-2222-2b3~r2-|------------5"-4"----|-8br---3-2-|
|-2222--------|-2222222222-------5"-|-6brp0-----|
|-0000--------|-0000000000----------|-----------|
  ....          ..........

Riff IV


[p. 1 & 3               |p 2                      |p 4
|-----------------------|-------------------------|----------|
|-----------------------|-------------------------|----------|
|-----------------------|-------------------------|----------|
|-----2brp0-------1h3p1-|-----2brp0-------3p1-----|----------|
|-222-------2p1-1-------|-222-------2p1-1----3p1--|-2-765765-|
|-000-------0---0-------|-000-------0---0---------|-0-543543-|
  ...       .   .         ...       .   .           . ......

Riff V

[p.m.
|-----------|-----------|
|-----------|-----------|
|-----------|-----------|
|-----------|-222-4-5-4-|
|-222-4-5-4-|-000-2-3-2-|
|-000-2-3-2-|-----------|

Riff VI

[p.m.
|--------------------------------|
|--------------------------------|
|-999999-101010101010-7777777777-|
|-999999-101010101010-7777777777-|
|-777777--8-8-8-8-8-8-5555555555-|
|-xxxxxx--x-x-x-x-x-x-xxxxxxxxxx-|
  ......  . . . . . . ..........

Riff VII(outro riff)

|----------------------------------------|
|----------------------------------------|
|----------------------------------------|
|-2222-2222-222222----2222-2222-2"-3"-1"-|
|-2222-2222-222222----2222-2222----------|
|-0000-0000-000000-3~-0000-0000----------|
  .... .... ......    .... ....


RIff VII cont.
|-----------------------------------------|
|-----------------------------------------|
|-----------------------------------------|
|-----------------------------------5-6-3-|
|-2222-2222-322322-5b6r3-2222-2222--5-6-3-|
|-0000-0000-100100-3b4r1-0000-0000--3-4-2-|
  .... .... ...... ..... .... ....  . . .





Comments


Popular Berzerker tabs & chords
Never Hated More Bass Tabs
Canniable Rights Tabs
Chronological Order Of Putrefaction 1 Tabs
Corporal Jigsore Quandary Intro Tabs
Disregard Tabs
Farewell 1 Tabs
Last Mistake Tabs
Massacre 1 Tabs
Reality Tabs
Y Tabs


Song lyrics



↑ Back to top | Tablatures and chords are parodies/interpretations of the original songs. You may use it for private study, scholarship, research or language learning purposes only
© 2014 AZChords.com Contact us | Privacy policy | DMCA | Add/correct tabs | Request tabs | Top 50 tabs