>
 >
Reality

Reality Bass Tabs

Berzerker - Reality chords, tabs, tablatures, lyrics

Guitar lessons | Add/correct | Request | Top 50 tabs Artists:  A B C D E F G H I J K L M N O P Q R S T U V W X Y Z 0-9

Reality Bass Tabs – Berzerker

CD, Sheet music, Poster

Do you like Reality? Share with your friends now
Bass TabsTabsTabs v2
4/4
  Bass a tuned
  W          W          W          W
|----------|----------|----------|------||
|----------|----------|----------|------||
|----------|----------|----------|------||
|----------|----------|----------|------||


  S S S S S S S S S S S S  S  S  S  S   S S S S S S S S S S S S S S S S
|-------------------------------------|-----------------------------------|
|-------------------------------------|-----------------------------------|
|-8-8-8-8-9-9-9-9---------------------|-------------8-8-------------------|
|-----------------6-6-6-6-10-10-10-10-|-----------------6-6-6-6-4-4-4-4---|
|-------------------------------------|-6-6-6-6-7-7-----------------------|


  S S S S S S S S  S  S  S  S S S S S   S S S S S S S S S S S S S S S S
|-------------------------------------|-----------------------------------|
|-------------------------------------|-----------------------------------|
|---------9-9-9-9---------------------|-------------8-8-------------------|
|-7-7-7-7---------10-10-10-10-7-7-7-7-|-----------------6-6-6-6-4-4-4-4---|
|-------------------------------------|-6-6-6-6-6-6-----------------------|


  S S S S S S S S S S S S  S  S  S  S   S S S S S S S S S S S S S S S S
|-------------------------------------|-----------------------------------|
|-------------------------------------|-----------------------------------|
|-8-8-8-8-9-9-9-9---------------------|-------------8-8-------------------|
|-----------------6-6-6-6-10-10-10-10-|-----------------6-6-6-6-4-4-4-4---|
|-------------------------------------|-6-6-6-6-7-7-----------------------|


  S S S S S S S S  S  S  S  S S S S S   S S S S S S S S S S S S S S S S
|-------------------------------------|-----------------------------------|
|-------------------------------------|-----------------------------------|
|---------9-9-9-9---------------------|-------------8-8-------------------|
|-7-7-7-7---------10-10-10-10-7-7-7-7-|-----------------6-6-6-6-4-4-4-4---|
|-------------------------------------|-6-6-6-6-6-6-----------------------|


  S S S S S S S S S S S S S S S S   S S S S S S S S  S  S  S  S  S  S  S  S
|---------------------------------|-------------------------------------------|
|---------------------------------|-------------------------------------------|
|-8-8-8-8-8-8-8-8-9-9-9-9-9-9-9-9-|-------------------------------------------|
|---------------------------------|-6-6-6-6-6-6-6-6-10-10-10-10-10-10-10-10---|
|---------------------------------|-------------------------------------------|


  S S S S S S S S S S S S S S S S   S S S S S S S S S S S S S S S S
|---------------------------------|-----------------------------------|
|---------------------------------|-----------------------------------|
|-------------------------8-8-8-8-|-----------------------------------|
|---------------------------------|-6-6-6-6-6-6-6-6-4-4-4-4-4-4-4-4---|
|-6-6-6-6-6-6-6-6-7-7-7-7---------|-----------------------------------|


  S S S S S S S S S S S S S S S S   S S S S S S S S  S  S  S  S  S  S  S  S
|---------------------------------|-------------------------------------------|
|---------------------------------|-------------------------------------------|
|-8-8-8-8-8-8-8-8-9-9-9-9-9-9-9-9-|-------------------------------------------|
|---------------------------------|-6-6-6-6-6-6-6-6-10-10-10-10-10-10-10-10---|
|---------------------------------|-------------------------------------------|


  S S S S S S S S S S S S S S S S   S S S S S S S S S S S S S S S S
|---------------------------------|-----------------------------------|
|---------------------------------|-----------------------------------|
|-------------------------8-8-8-8-|-----------------------------------|
|---------------------------------|-6-6-6-6-6-6-6-6-4-4-4-4-4-4-4-4---|
|-6-6-6-6-6-6-6-6-7-7-7-7---------|-----------------------------------|


  W          +W           +W           +W
|----------|
|----------|
|----------|
|----------|
|-6--------|


  S S S S S S S S S S S S  S  S  S  S   S S S S S S S S S S S S S S S S
|-------------------------------------|-----------------------------------|
|-------------------------------------|-----------------------------------|
|-8-8-8-8-9-9-9-9---------------------|-------------8-8-------------------|
|-----------------6-6-6-6-10-10-10-10-|-----------------6-6-6-6-4-4-4-4---|
|-------------------------------------|-6-6-6-6-7-7-----------------------|


  S S S S S S S S  S  S  S  S S S S S   S S S S S S S S S S S S S S S S
|-------------------------------------|-----------------------------------|
|-------------------------------------|-----------------------------------|
|---------9-9-9-9---------------------|-------------8-8-------------------|
|-7-7-7-7---------10-10-10-10-7-7-7-7-|-----------------6-6-6-6-4-4-4-4---|
|-------------------------------------|-6-6-6-6-6-6-----------------------|


  S S S S S S S S S S S S S S S S   S S S S S S S S  S  S  S  S  S  S  S  S
|---------------------------------|-------------------------------------------|
|---------------------------------|-------------------------------------------|
|-8-8-8-8-8-8-8-8-9-9-9-9-9-9-9-9-|-------------------------------------------|
|---------------------------------|-6-6-6-6-6-6-6-6-10-10-10-10-10-10-10-10---|
|---------------------------------|-------------------------------------------|


  S S S S S S S S S S S S S S S S   S S S S S S S S S S S S S S S S
|---------------------------------|-----------------------------------|
|---------------------------------|-----------------------------------|
|-------------------------8-8-8-8-|-----------------------------------|
|---------------------------------|-6-6-6-6-6-6-6-6-4-4-4-4-4-4-4-4---|
|-6-6-6-6-6-6-6-6-7-7-7-7---------|-----------------------------------|


  H    H     H    H      H    H      H    H
|----------|-----------|-----------|-----------|
|----------|-----------|-----------|-----------|
|----------|-----------|-----------|-----------|
|------1---|------3----|------1----|-----------|
|-2--------|-0---------|-2---------|-0----3----|


  PM--------------------------------------------------------------|
  S S S S S S S S S S S S S S S S   S S S S S S S S S S S S S S S S
|---------------------------------|-----------------------------------|
|---------------------------------|-----------------------------------|
|---------------------------------|-----------------------------------|
|---------------------------------|-----------------------------------|
|-2-2-2-2-2-2-2-2-6-6-6-6-6-6-6-6-|-0-0-0-0-0-0-0-0-3-3-3-3-3-3-3-3---|


  PM----|   PM----|        PM----|    PM----|
  S S S S Q S S S S Q      S S S S Q  S S S S Q
|-----------------------|--------------------------|
|-----------------------|--------------------------|
|-----------------------|---------------------5----|
|---------4---------8---|----------7--3-3-3-3------|
|-2-2-2-2---6-6-6-6-----|--0-0-0-0-----------------|


  PM------------------------------------------------------------------|
  E E E E E E E E   E E E E E E E E   E E E E E E E E   E E E E E E E E

|-----------------|-----------------|-----------------|-----------------|
|-----------------|-----------------|-----------------|-----------------|
|-----------------|-----------------|-----------------|-----------------|
|-----------------|-----------------|-----------------|-----------------|
|-6-6-6-6-6-6-6-6-|-7-7-7-7-7-7-7-7-|-5-5-5-5-5-5-5-5-|-3-3-3-3-3-3-3-3-|


   E  E  E  E  E  E  E  E    E  E  E  E  E  E  E  E
|-------------------------|-------------------------|
|-------------------------|-------------------------|
|-------------------------|-------------------------|
|-13-13-13-13-13-13-13-13-|-14-14-14-14-14-14-14-14-|
|-------------------------|-------------------------|


  E E E E E E E E    E  E  E  E  E  E  E  E
|-----------------|-------------------------|
|-----------------|-------------------------|
|-----------------|-------------------------|
|-6-6-6-6-6-6-6-6-|-10-10-10-10-10-10-10-10-|
|-----------------|-------------------------|


  PM------------------------------------------------------------------|
  E E E E E E E E   E E E E E E E E   E E E E E E E E   E E E E E E E E
|-----------------|-----------------|-----------------|-----------------|
|-----------------|-----------------|-----------------|-----------------|
|-----------------|-----------------|-----------------|-----------------|
|-----------------|-----------------|-----------------|-----------------|
|-6-6-6-6-6-6-6-6-|-7-7-7-7-7-7-7-7-|-6-6-6-6-6-6-6-6-|-3-3-3-3-3-3-3-3-|


   E  E  E  E  E  E  E  E    E  E  E  E  E  E  E  E
|-------------------------|-------------------------|
|-------------------------|-------------------------|
|-------------------------|-------------------------|
|-------------------------|-------------13-13-13-13-|
|--6--6--6--6--6--6--6--6-|--7--7--7--7-------------|

                    PM|     PM|
  E E E E E E E E   E E E E E E E E
|-----------------|-----------------|
|-----------------|-----------------|
|-----------------|-------------9---|
|-6-6-6-6-6-6-6-6-|-----6-9-------9-|
|-----------------|-6-6-----6-6-----|


   Q  Q  Q   Q     Q  Q  Q   Q     Q  Q  Q   Q     Q  Q  Q   Q
|---------------|---------------|---------------|---------------|
|---------------|---------------|---------------|---------------|
|---------------|---------------|---------------|---------------|
|--9-----7------|--9-----7------|--9-----7------|--9-----7------|
|-----6------8--|-----6------8--|-----6------8--|-----6------8--|


  S S S S S S S S S S S S S S S S   S S S S S S S S S S S S S S S S
|---------------------------------|-----------------------------------|
|---------------------------------|-----------------------------------|
|---------------------------------|-----------------------------------|
|-9-9-9-9---------7-7-7-7---------|-9-9-9-9---------7-7-7-7-----------|
|---------6-6-6-6---------8-8-8-8-|---------6-6-6-6---------8-8-8-8---|


                                    PM----------------------------|
  S S S S S S S S S S S S S S S S   S S S S S S S S S S S S S S S S
|---------------------------------|-----------------------------------|
|---------------------------------|-----------------------------------|
|---------------------------------|-----------------------------------|
|-9-9-9-9---------7-7-7-7---------|-----------------------------------|
|---------6-6-6-6---------8-8-8-8-|-2-2-2-2-6-6-6-6-0-0-0-0-3-3-3-3---|


  S S S S S S S S S S S S S S S S   S S S S S S S S S S S S S S S S
|---------------------------------|-----------------------------------|
|---------------------------------|-----------------------------------|
|---------------------------------|-----------------------------------|
|-9-9-9-9---------7-7-7-7---------|-9-9-9-9---------7-7-7-7-----------|
|---------6-6-6-6---------8-8-8-8-|---------6-6-6-6---------8-8-8-8---|


                                    PM----------------------------|
  S S S S S S S S S S S S S S S S   S S S S S S S S S S S S S S S S
|---------------------------------|-----------------------------------|
|---------------------------------|-----------------------------------|
|---------------------------------|-----------------------------------|
|-9-9-9-9---------7-7-7-7---------|-----------------------------------|
|---------6-6-6-6---------8-8-8-8-|-2-2-2-2-6-6-6-6-0-0-0-0-3-3-3-3---|


  S S S S S S S S S S S S S S S S   S S S S S S S S S S S S S S S S
|---------------------------------|-----------------------------------|
|---------------------------------|-----------------------------------|
|---------------------------------|-----------------------------------|
|-9-9-9-9---------7-7-7-7---------|-9-9-9-9---------7-7-7-7-----------|
|---------6-6-6-6---------8-8-8-8-|---------6-6-6-6---------8-8-8-8---|


                                    PM----------------------------|
  S S S S S S S S S S S S S S S S   S S S S S S S S S S S S S S S S
|---------------------------------|-----------------------------------|
|---------------------------------|-----------------------------------|
|---------------------------------|-----------------------------------|
|-9-9-9-9---------7-7-7-7---------|-----------------------------------|
|---------6-6-6-6---------8-8-8-8-|-2-2-2-2-6-6-6-6-0-0-0-0-3-3-3-3---|


  S S S S S S S S S S S S S S S S   S S S S S S S S S S S S S S S S
|---------------------------------|-----------------------------------|
|---------------------------------|-----------------------------------|
|---------------------------------|-----------------------------------|
|-9-9-9-9---------7-7-7-7---------|-9-9-9-9---------7-7-7-7-----------|
|---------6-6-6-6---------8-8-8-8-|---------6-6-6-6---------8-8-8-8---|


                                    PM--------------------|
  S S S S S S S S S S S S S S S S   S S S S S S S S S S S S E E
|---------------------------------|--------------------------------*|
|---------------------------------|--------------------------------*|
|---------------------------------|-------------------------5-5----*|
|-9-9-9-9---------7-7-7-7---------|-------------------------3-3----*|
|---------6-6-6-6---------8-8-8-8-|-2-2-2-2-6-6-6-6-0-0-0-0--------*|





Comments


Popular Berzerker tabs & chords
Slit Down Bass Tabs
Burnt Tabs
Cannible Rights Tabs
Deform Tabs
Disregard Tabs
Farewell 1 Tabs
Humanity Tabs
Massacre Tabs
Pain Tabs
The Principles And Practices Of Embalming Tabs


Song lyrics



↑ Back to top | Tablatures and chords are parodies/interpretations of the original songs. You may use it for private study, scholarship, research or language learning purposes only
© 2014 AZChords.com Contact us | Privacy policy | DMCA | Add/correct tabs | Request tabs | Top 50 tabs