>
 >
Never Hated More

Never Hated More Bass Tabs

Berzerker - Never Hated More chords, tabs, tablatures, lyrics

Guitar lessons | Add/correct | Request | Top 50 tabs Artists:  A B C D E F G H I J K L M N O P Q R S T U V W X Y Z 0-9

Never Hated More Bass Tabs – Berzerker

CD, Sheet music, Poster

Do you like Never Hated More? Share with your friends now
Bass Tabs
The Berzerker - "Never Hated More" B Tab
Band: The Berzerker
Record Label: Earache
Tuning: A D G C E

-----------------------------------|
-----------444-----------44444444--|
-------3-2-----------3-2-----------|
---4-1-----------4-1---------------|
-2-------------2-------------------|X4
 trem............................

--------------------------------|
--------------------------------|
-3-------5-------3-------5------|
---2-3-----2-3-----2-3-----2----|
-------1-------1-------1-----1--|X2


----------------------------------|
----------------------------------|
---------------5---------------2--|
----------------------------------|
-1-1-1-1-1-1-1---1-1-1-1-1-1-1----|X2
 trem...........................


----------------------------------|
----------------------------------|
---------------5---------------2--|
----------------------------------|
-0-0-0-0-0-0-0---0-0-0-0-0-0-0----|
 trem...........................


----------------------------------|
----------------------------------|
---------------5---------------2--|
----------------------------------|
-1-1-1-1-1-1-1---1-1-1-1-1-1-1----|
 trem...........................


--------------------------------------------|
--------------------------------------------|
-----------5-4-5-4444-----------5-4-5-4444--|
-3-3-3-3-3------------3-3-3-3-3-------------|
--------------------------------------------|
 trem......................................


-----------------------------------------|
-----------------------------------------|
-----------5-4-5-4444--------------------|
-2-2-2-2-2------------2-2-2-2-2----------|
--------------------------------3-2-1-0--|
 trem..........................


--------------------|
--------------------|
-3---3---3----------|
--------------------|
---0---0---0-0-0-0--|X3
 trem.............


--------------------|
--------------------|
-3---3---3----------|
-----------------4--|
---0---0---1-0-0----|
 trem.....     pm


--------------------|
--------------------|
-3---3---3----------|
--------------------|
---0---0---0-0-0-0--|X3
 trem.............


--------------------|
--------------------|
-3---3---3----------|
-----------------4--|
---0---0---1-0-0----|
 trem.....     pm


--------------------------------|
--------------------------------|
-3-------5-------3-------5------|
---2-3-----2-3-----2-3-----2----|
-------1-------1-------1-----1--|X4


------------------------------------------------|
------------------------------------------------|
------------------------------------------------|
-1-----1-----1-----4-----1-----1-----1-2\1-2----|
---1-1---4-1---4-1---1-0---4-1---4-1---------3--|X4
   pm.   . .   . .   . .   . .   . .       .


------------------------------------------|
------------------------------------------|
------------------------------------------|
-1---------------1-0-1---------1-2\1-2----|
---4-1-1-2---4-5-------4-1-1-2---------3--|
   pm.       . .       . .           .


--------------------------------|
--------------------------------|
--------------------------------|
-1---------1-----1-0-1----------|
---4-1-1-2---4-5-------4-1-1-2--|
   pm.       . .       . .

(sample noise)


------------------------------------------------|
------------------------------------------------|
------------------------------------------------|
-1-----1-----1-----4-----1-----1-----1-2\1-2----|
---1-1---4-1---4-1---1-0---4-1---4-1---------3--|X4
   pm.   . .   . .   . .   . .   . .       .

------------------------------------------|
------------------------------------------|
-------2-2-------2-2-------3-3-------7-3--|
-1---------1---------1---------1----------|
---4-1-------4-1-------5-2-------5-2------|X4
   pm.       . .       . .       . .
trem   .....     .....     .....     ...


------------------------------------------------|
------------------------------------------------|
------------------------------------------------|
-1-----1-----1-----4-----1-----1-----1-2\1-2----|
---1-1---4-1---4-1---1-0---4-1---4-1---------3--|X4
   pm.   . .   . .   . .   . .   . .       .


------------------------------------------|
------------------------------------------|
-------2-2-------2-2-------3-3-------7-3--|
-1---------1---------1---------1----------|
---4-1-------4-1-------5-2-------5-2------|X3
   pm.       . .       . .       . .
trem   .....     .....     .....     ...

--------------------------------|
--------------------------------|
-------2-2-------2-2------------|
-1---------1--------------------|
---4-1-------4-1-----1-0-7-6-0--|
   pm.       . .     . . . . let ring.
trem   .....     ...


----------|
----------|
----------|
-1--------|
---4-1-1--|
   pm. .


THE END





Comments


Popular Berzerker tabs & chords
Chronological Order Of Putrefaction Bass Tabs
Forever Bass Tabs
Last Mistake Bass Tabs
Cannbal Rights Tabs
Disregard Tabs
Farewell 1 Tabs
Humanity Tabs
No One Wins Tabs
Reality Tabs
The Principles And Practices Of Embalming Tabs


Song lyrics



↑ Back to top | Tablatures and chords are parodies/interpretations of the original songs. You may use it for private study, scholarship, research or language learning purposes only
© 2014 AZChords.com Contact us | Privacy policy | DMCA | Add/correct tabs | Request tabs | Top 50 tabs