>
 >
Massacre 1

Massacre 1 Guitar Tabs

Berzerker - Massacre 1 chords, tabs, tablatures, lyrics

Guitar lessons | Add/correct | Request | Top 50 tabs Artists:  A B C D E F G H I J K L M N O P Q R S T U V W X Y Z 0-9

Massacre 1 Guitar Tabs – Berzerker

CD, Sheet music, Poster

Do you like Massacre 1? Share with your friends now
Bass TabsTabsTabs v2
Gtr I (A D G C E A) 


    Q=140
   4/4
    Gtrs I, II
    S S S S Q  S S S S Q    e e Q  e e Q
||------------------------|---------------|
||o-----------------------|---------------|
||----------5----------6--|-----5------5--|
||------------------------|-----5------5--|
||o---------3----------4--|-6-5-3--6-5-3--|
||--5-4-3-4----6-5-4-5----|-4-3-3--4-3-3--|


  e e E E e e E E   S S S S Q  S S S S S S E   4x
|-----------------|----------------------------||
|-----------------|---------------------------o||
|-----5S6-----6S7-|---------5--------------5---||
|-----------------|----------------------------||
|-6-5-3S4-7-6-4S5-|---------3--------------3--o||
|-4-3-----5-4-----|-5-4-3-4----5-4-3-4-3-3-----||


  Q  S S Q  E S S E    Q   S  S Q  E  S  S E
|-------------------|------------------------|
|-------------------|------------------------|
|-6------5--5-------|-10--------9--9---------|
|-------------------|------------------------|
|-4--7-6-3--3-6-6-5-|--8--11-10-7--7-10-10-9-|
|----5-4------4-4-3-|------9--8-------8--8-7-|


  Q  S S Q  E S S E    E  a   E  E Q  E  S  S E
|-------------------|----------------------------|
|-------------------|----------------------------|
|-6------5--5-------|-10-10-/12-10-9--9----------|
|-------------------|----------------------------|
|-4--7-6-3--3-6-6-5-|--8--8-/10--8-7--7-10-10-9--|
|----5-4------4-4-3-|--------------------8--8-7--|


  Q  S S Q  E S S E    Q   S  S Q  E  S  S E
|-------------------|------------------------|
|-------------------|------------------------|
|-6------5--5-------|-10--------9--9---------|
|-------------------|------------------------|
|-4--7-6-3--3-6-6-5-|--8--11-10-7--7-10-10-9-|
|----5-4------4-4-3-|------9--8-------8--8-7-|


                     2/4
  Q  S S Q  E S S E     E  a   E  E   E
|-------------------|---------------------|
|-------------------|---------------------|
|-6------5--5-------|--10-10-/12-10---9---|
|-------------------|---------------------|
|-4--7-6-3--3-6-6-5-|---8--8-/10--8---7---|
|----5-4------4-4-3-|---------------------|


   4/4
    S S E S S Q  E  S S E   S S Q  e S S E S S E    Q  S S E S S  E Q   3x
||------------------------|-----------------------|---------------------||
||o-----------------------|-----------------------|--------------------o||
||------------------------|-----------------------|-----------------6---||
||--7-6---6-5------10-9---|-9-8----8-7-6---6-5----|---10-9---9-8----7---||
||o-7-6---6-5------10-9---|-9-8----8-7-6---6-5----|---10-9---9-8----7--o||
||--5-4---4-3-------8-7---|-7-6----6-5-4---4-3----|----8-7---7-6----5---||


  S S E S S Q  E  S S E   S S Q  e S S E Q          W
|-----------------------|-------------------|------------|
|-----------------------|-------------------|------------|
|-----------------------|-------------------|------------|
|-7-6---6-5------10-9---|-9-8----8-7-6------|------------|
|-7-6---6-5------10-9---|-9-8----8-7-6------|------------|
|-5-4---4-3-------8-7---|-7-6----6-5-4------|------------|

(must be downpicked)

    S S S S E S S S S E  S S  S S   S S S S  E S S S S E  S S E    16x
||--------------------------------|---------------------------------||
||o-------------------------------|--------------------------------o||
||----------6---------5-----------|---------10---------9------7-----||
||--------------------------------|---------------------------8-----||
||o-7-6-5---4-6-6-5---3--6-5--5-6-|1110-9-10-81010-9---7--9-9-8----o||
||--5-4-3-----4-4-3------4-3--3-4-|-9-8-7-8----8-8-7------7-7-6-----||


    S S E S S Q  E  S S E   S S Q  e S S E S S E   Q   S S E S S E Q
||------------------------|----------------------|---------------------||
||o-----------------------|----------------------|--------------------o||
||------------------------|----------------------|-----------------6---||
||--7-6---6-5------10-9---|-9-8----8-7-6---6-5---|----10-9---9-8---7---||
||o-7-6---6-5------10-9---|-9-8----8-7-6---6-5---|----10-9---9-8---7--o||
||--5-4---4-3-------8-7---|-7-6----6-5-4---4-3---|-----8-7---7-6---5---||


    S S S S E S S S S E S S S S   S S S S  E S S S S E S S E  4x
||------------------------------|-----------------------------||
||o-----------------------------|----------------------------o||
||----------6---------5---------|---------10---------9-----7--||
||------------------------------|--------------------------8--||
||o-7-6-5---4-6-5-5---3-6-5-5-6-|1110-910--81010-9---7-9-9-8-o||
||--5-4-3-----4-4-3-----4-3-3-4-|-9-8-7-8----8-8-7-----7-7-6--||


    S S S S Q  S S S S Q    e e Q  e e Q
||------------------------|---------------|
||o-----------------------|---------------|
||----------5----------6--|-----5------5--|
||------------------------|-----5------5--|
||o---------3----------4--|-6-5-3--6-5-3--|
||--5-4-3-4----6-5-4-5----|-4-3-3--4-3-3--|


  e e E E e e E E   S S S S Q  S S S S S S E
|-----------------|-----------------------------||
|-----------------|----------------------------o||
|-----5S6-----6S7-|---------5--------------5----||
|-----------------|-----------------------------||
|-6-5-3S4-7-6-4S5-|---------3--------------3---o||
|-4-3-----5-4-----|-5-4-3-4----5-4-3-4-3-3------||


    S S S S E E. S E. S E  8x     E E  E E E  E E E   E E  E E E  E E E
||-------------------------||-||--------------------|-------------------|
||o-----------------------o||-||o-------------------|-------------------|
||-------------------------||-||--------------------|-------------------|
||--5-4-2-4-5-5----5----5--||-||--------------------|-------------------|
||o-----------5----5----5-o||-||o---9-12---7-11-7---|---8-11---6-10-6---|
||------------3----3----3--||-||--9------9--------9-|-8------8--------8-|


  E E  E E E  E E E   E E  E E E  E  S  S  E  3x
|-------------------|-------------------------||
|-------------------|------------------------o||
|-------------------|---------------12S14S12--||
|-------------------|-------------------------||
|---9-12---7-11-7---|---8-11---6-10-10S12S10-o||
|-9------9--------9-|-8------8----------------||


  S S S S  S  S S S S S  S  S S S S S
|-------------------------------------|
|-------------------------------------|
|-------------------------------------|
|-------------------------------------|
|-----9-9-12-12-----7-7-11-11-7-7-----|
|-9-9-----------9-9---------------9-9-|


  S S S S  S  S S S S S  S  S S S S S   S S S S  S  S S S S S  S  S S S S S
|-------------------------------------|-------------------------------------|
|-------------------------------------|-------------------------------------|
|-------------------------------------|-------------------------------------|
|-------------------------------------|-------------------------------------|
|-----8-8-11-11-----6-6-10-10-6-6-----|-----9-9-12-12-----7-7-11-11-7-7-----|
|-8-8-----------8-8---------------8-8-|-9-9-----------9-9---------------9-9-|


  S S S S  S  S S S S S  S  S  S  S  S  S
|-----------------------------------------*|
|-----------------------------------------*|
|-----------------------------12-14-12-12-*|
|-----------------------------------------*|
|-----8-8-11-11-----6-6-10-10-10-12-10-10-*|
|-8-8-----------8-8-----------------------*|





Comments


Popular Berzerker tabs & chords
Cannibal Rights Bass Tabs
Deform Bass Tabs
Slit Down Bass Tabs
Cannbal Rights Tabs
Cannible Rights Tabs
February Tabs
Forever Tabs
Forever 1 Tabs
Reality 1 Tabs
Slit Down Tabs


Song lyrics



↑ Back to top | Tablatures and chords are parodies/interpretations of the original songs. You may use it for private study, scholarship, research or language learning purposes only
© 2014 AZChords.com Contact us | Privacy policy | DMCA | Add/correct tabs | Request tabs | Top 50 tabs