» » »

Ignorance Tabs (ver.1)

Artists:  A B C D E F G H I J K L M N O P Q R S T U V W X Y Z # 

Ignorance Tabs (ver.1)

Berzerker
Rating:
0/5 (0 votes)

Hard to play? Try these video lessons and learn fast.
                Gtr I (A D G C E A) 
Gtr II (A D G C E A) 


   
   4/4
    Gtr I
    S S S S S S S S S S S S S S S S   S S S S S S S S S S S S S S S S
||----------------------------------|---------------------------------|
||o---------------------------------|---------------------------------|
||----------------------------------|---------------------------------|
||----------------------------------|---------------------------------|
||o-4-4-4-4-4-4-4-4-5-5-5-5-5-5-5-5-|-4-4-4-4-4-4-4-4-5-5-5-5-5-5-5-5-|
||--2-2-2-2-2-2-2-2-2-2-2-2-2-2-2-2-|-2-2-2-2-2-2-2-2-2-2-2-2-2-2-2-2-|
|
|   Gtr II
|   S S S S S S S S S S S S S S S S   S S S S S S S S S S S S S S S S
||----------------------------------|---------------------------------|
||o---------------------------------|---------------------------------|
||--6-6-6-6-6-6-6-6-7-7-7-7-7-7-7-7-|-6-6-6-6-6-6-6-6-7-7-7-7-7-7-7-7-|
||--4-4-4-4-4-4-4-4-4-4-4-4-4-4-4-4-|-4-4-4-4-4-4-4-4-4-4-4-4-4-4-4-4-|
||o---------------------------------|---------------------------------|
||----------------------------------|---------------------------------|


  S S S S S S S S S S S S S S S S   S S S S S S S S S S S S S S S S   24x
|---------------------------------|------------------------------------||
|---------------------------------|-----------------------------------o||
|---------------------------------|------------------------------------||
|---------------------------------|------------------------------------||
|-6-6-6-6-6-6-6-6-7-7-7-7-7-7-7-7-|-6-6-6-6-6-6-6-6-7-7-7-7-7-7-7-7---o||
|-4-4-4-4-4-4-4-4-4-4-4-4-4-4-4-4-|-4-4-4-4-4-4-4-4-4-4-4-4-4-4-4-4----||
|
| S S S S S S S S S S S S S S S S   S S S S S S S S S S S S S S S S   24x
|---------------------------------|------------------------------------||
|---------------------------------|-----------------------------------o||
|-8-8-8-8-8-8-8-8-8-9-9-9-9-9-9-9-|-8-8-8-8-8-8-8-8-9-9-9-9-9-9-9-9----||
|-6-6-6-6-6-6-6-6-6-6-6-6-6-6-6-6-|-6-6-6-6-6-6-6-6-6-6-6-6-6-6-6-6----||
|---------------------------------|-----------------------------------o||
|---------------------------------|------------------------------------||
            
Hard to play? Try these video lessons and learn fast. | Correct




comments powered by Disqus
↑ Back to top | Tablatures and chords are parodies/interpretations of the original songs. You may use it for private study, scholarship, research or language learning purposes only