» » »

Humanity Tabs (ver.1)

Artists:  A B C D E F G H I J K L M N O P Q R S T U V W X Y Z # 

Humanity Tabs (ver.1)

Berzerker
Rating:
0/5 (0 votes)

Hard to play? Try these video lessons and learn fast.
                Gtr I (A D G C E A) 
Gtr II (A D G C E A)


 
   4/4
    Gtrs I, II
    \2                 \2                \2                   \2
    Q   E  E E E e E   Q   E  E E E Q    Q   E  E E E S S E   Q   E  E E E Q  4x
||-------------------|-----------------|--------------------|-----------------||
||o------------x-4---|------------x-4--|------------x-4-4---|------------x-4-o||
||--------11---x-3---|-------11---x-3--|-------11---x-3-3---|-------11---x-3--||
||--4----------x-4---|-4----------x-4--|-4----------x-4-4---|-4----------x-4--||
||o-4---x--9---------|-4---x--9--------|-4---x--9-----------|-4---x--9-------o||
||--2---x------------|-2---x-----------|-2---x--------------|-2---x-----------||


 6/4                           11/8
  E  E  E  Q.   E  E  E  Q  E   +E   E  E  E E E  E E E Q
|-----------------------------|----------------------------|
|-----------------------------|----------------------------|
|-----------------------------|----------------------------|
|-----------------------------|----------------------------|
|-4-------------4-----------9-|-(9)-----8----7-------------|
|----5--4--2-------5--4--2----|-----10-----9---7--4-4-5-2--|


 6/4
  S S S S S S S S S S S S S S S S S S S S S S  S S
|----------------------------------------------------|
|----------------------------------------------------|
|----------------------------------------------------|
|----------------------------------------------------|
|-4-4---------------------4-4------------------9-9---|
|-----5-5-4-4-2-2-2-2-2-2-----5-5-4-4-2-2-2-2--------|


 11/8
  S S  S  S S S S S S S S S S S S S S S S S S S
|--------------------------------------------------|
|--------------------------------------------------|
|--------------------------------------------------|
|--------------------------------------------------|
|-9-9-------8-8-----7-7----------------------------|
|-----10-10-----9-9-----7-7-4-4-4-4-5-5-2-2-2-2----|


 6/4                      11/8
  E E E Q.   E E E Q   E     +E   E  E  E E E E E E Q
|------------------------|-------------------------------|
|------------------------|-------------------------------|
|------------------------|-------------------------------|
|-6----------6--------11-|--(11)----10----9--------------|
|-4-7-6-4----4-7-6-4---9-|---(9)-12--8-11-7-9-6-6-7-4----|
|---5-4-2------5-4-2-----|-------10-----9---7-4-4-5-2----|


 6/4                      11/8                          4/4
                                                          \5_______________
  e e e q.  e e e Q   E    +E   E  E  E  E  E E E E Q    +W       +W
|------------------------|-----------------------------|--------|--------*|
|------------------------|-----------------------------|--------|--------*|
|------------------------|-----------------------------|--------|--------*|
|-6---------6------------|-----------------------------|--------|--------*|
|-4-7-6-4---4-7-6-4--[9]-|-(9)----[8]---[7]---6-6-7-4--|-(4)----|-(4)----*|
|---5-4-2-----5-4-2------|-----10-----9-----7-4-4-5-2--|-(2)----|-(2)----*|
            
Hard to play? Try these video lessons and learn fast. | Correct




comments powered by Disqus
↑ Back to top | Tablatures and chords are parodies/interpretations of the original songs. You may use it for private study, scholarship, research or language learning purposes only