>
 >
Forever

Forever Bass Tabs

Berzerker - Forever chords, tabs, tablatures, lyrics

Guitar lessons | Add/correct | Request | Top 50 tabs Artists:  A B C D E F G H I J K L M N O P Q R S T U V W X Y Z 0-9

Forever Bass Tabs – Berzerker

CD, Sheet music, Poster

Do you like Forever? Share with your friends now
Bass TabsTabsTabs v2
4/4
   A tuned
    W          W          W          H.    E +E
||o----------|----------|----------|--------------|
||-----------|----------|----------|--------------|
||-----------|----------|----------|--------------|
||o----------|-5--------|----------|-4------------|
||--2--------|----------|-5--------|-------3-(3)s=|


     PM----|
  Q  Q  Q  Q    H.     Q      H.     Q    H.      Q
|-------------|------------|------------|------------o||
|-------------|------------|------------|-------------||
|-------------|------------|------------|-------------||
|-4-----------|-5------5---|------------|-4----------o||
|----2--2--2--|------------|--5------5--|---------3---||


    Q  S S S S S S S S S S S S   S S S S S S S S S S S S S S S S
||o----------------------------|------------------------------------|
||-------------6-6-6-6---------|---------4-4-4-4--------------------|
||-----4-4-4-4---------7-7-7-7-|-2-2-2-2---------5-5-5-5-0-0-0-0----|
||o-4--------------------------|------------------------------------|
||-----------------------------|------------------------------------|


                                                             PM
  Q  S S S S S S S S S S S S   S S S S S S S S S S S S   E   E
|----------------------------|-----------------------------------|
|------------6-6-6-6-9-9-9-9-|-7-7-7-7---------------------------|
|----4-4-4-4-----------------|---------5-5-5-5-9-9-9-9-----------|
|-4--------------------------|---------------------------5-------|
|----------------------------|-------------------------------0---|


  Q  S S S S S S S S S S S S   S S S S S S S S S S S S S S S S
|----------------------------|------------------------------------|
|------------6-6-6-6---------|---------4-4-4-4--------------------|
|----4-4-4-4---------7-7-7-7-|-2-2-2-2---------5-5-5-5-0-0-0-0----|
|-4--------------------------|------------------------------------|
|----------------------------|------------------------------------|


                1.,2.                  3.
  H    +Q   Q    H    +Q   E   +E      W
|--------------|-------------------o||------|
|--------------|--------------------||------|
|--------------|--------------------||------|
|-0---------0--|-4----(4)----------o||-4----|
|--------------|-----------6b7r(6)--||------|


    T   T   T   T   T   T   T   T     T   T   T   T   T   T   T   T
    S S S S S S S S S S S S S S S S   S S S S S S S S S S S S S S S S
||o---------------------------------|----------------------------------|
||----------------------------------|----------------------------------|
||----------------------------------|----------------------------------|
||o-9p6-9p6-9p6-9p6-9p6-9p6-9p6-9p6-|-9p6-9p6-9p6-9p6-9p6-9p6-9p6-9p6--|
||----------------------------------|----------------------------------|


  T   T   T   T   T   T   T   T     T   T   T   T   T   T   T   T
  S S S S S S S S S S S S S S S S   S S S S S S S S S S S S S S S S
|---------------------------------|---------------------------------|
|---------------------------------|---------------------------------|
|-8p5-8p5-8p5-8p5-8p5-8p5-8p5-8p5-|-7p4-7p4-7p4-7p4-7p4-7p4-7p4-7p4-|
|---------------------------------|---------------------------------|
|---------------------------------|---------------------------------|


  T   T   T   T   T   T   T   T     T   T   T   T   T   T   T   T
  S S S S S S S S S S S S S S S S   S S S S S S S S S S S S S S S S
|---------------------------------|---------------------------------|
|---------------------------------|---------------------------------|
|---------------------------------|---------------------------------|
|-9p6-9p6-9p6-9p6-9p6-9p6-9p6-9p6-|-9p6-9p6-9p6-9p6-9p6-9p6-9p6-9p6-|
|---------------------------------|---------------------------------|


   T    T    T    T    T    T    T    T
   S S  S S  S S  S S  S S  S S  S S  S S
|-----------------------------------------|
|-----------------------------------------|
|-10p6-10p6-10p6-10p6-10p6-10p6-10p6-10p6-|
|-----------------------------------------|
|-----------------------------------------|


  1.
  T   T   T   T   T   T   T   T
  S S S S S S S S S S S S S S S S
|-----------------------------------o||
|------------------------------------||
|------------------------------------||
|-7p4-7p4-7p4-7p4-7p4-7p4-7p4-7p4---o||
|------------------------------------||


  2.
  T   T   T   T
  S S S S S S S S E E Q      Q  S S S S S S S S S S S S
|------------------------||o----------------------------|
|------------------------||-------------6-6-6-6---------|
|------------------------||-----4-4-4-4---------7-7-7-7-|
|-7p4-7p4-7p4-7p4-7------||o-4--------------------------|
|------------------------||-----------------------------|


  S S S S S S S S S S S S S S S S
|---------------------------------|
|---------4-4-4-4-----------------|
|-2-2-2-2---------5-5-5-5-0-0-0-0-|
|---------------------------------|
|---------------------------------|


                                                         PM
  Q  S S S S S S S S S S S S   S S S S S S S S S S S S E E
|----------------------------|--------------------------------|
|------------6-6-6-6-9-9-9-9-|-7-7-7-7------------------------|
|----4-4-4-4-----------------|---------5-5-5-5-9-9-9-9--------|
|-4--------------------------|-------------------------5------|
|----------------------------|---------------------------0----|


  Q  S S S S S S S S S S S S   S S S S S S S S S S S S S S S S
|----------------------------|------------------------------------|
|------------6-6-6-6---------|---------4-4-4-4--------------------|
|----4-4-4-4---------7-7-7-7-|-2-2-2-2---------5-5-5-5-0-0-0-0----|
|-4--------------------------|------------------------------------|
|----------------------------|------------------------------------|


                 1.                    2.
  H    +Q   Q    H    +Q   E   +E      W          +W
|--------------|-------------------o||----------|--------|
|--------------|--------------------||----------|--------|
|--------------|--------------------||----------|--------|
|-0----(0)--0--|-4----(4)----------o||-4--------|-(4)----|
|--------------|-----------6b7r(6)--||----------|--------|


                       PM--|                         PM------|
    H    Q.   E   +Q.  E E E Q    H    Q.   E   +E   E E E E E Q
||o-------------|---------------|-------------|--------------------o||
||--------------|---------------|-------------|---------------------||
||--------------|---------------|-------------|---------------------||
||o------4------|---------------|------5------|--------------------o||
||--2---------3-|-(3)--3-3-3-3--|-2---------5-|-(5)--5-5-5-5-5-5----||


    H    Q.   E   +W       H    Q.   E     +W      3x
||o-------------|--------|--------------|---------o||
||--------------|--------|--------------|----------||
||--------------|--------|--------------|----------||
||o------4------|--------|------5-------|---------o||
||--2---------3-|-(3)----|-2---------5--|--(5)-----||


           PM|         PM  PM       PM-----|     PM----|
  H.       E E   Q.    q E q    H.  E E    q  E  E E E E  E
|--------------|--------------|----------|------------------|
|--------------|--------------|----------|------------------|
|--------------|--------------|----------|------------------|
|-5------------|--------------|-3--------|------------------|
|----------5-3-|-2\----0---3--|-----3-1--|-0-----3-1-3-0----|


    T   T   T   T   T   T   T   T     T   T   T   T   T   T   T   T
    S S S S S S S S S S S S S S S S   S S S S S S S S S S S S S S S S
||o---------------------------------|----------------------------------|
||----------------------------------|----------------------------------|
||----------------------------------|----------------------------------|
||o-9p6-9p6-9p6-9p6-9p6-9p6-9p6-9p6-|-9p6-9p6-9p6-9p6-9p6-9p6-9p6-9p6--|
||----------------------------------|----------------------------------|


  T   T   T   T   T   T   T   T     T   T   T   T   T   T   T   T
  S S S S S S S S S S S S S S S S   S S S S S S S S S S S S S S S S
|---------------------------------|-----------------------------------|
|---------------------------------|-----------------------------------|
|-8p5-8p5-8p5-8p5-8p5-8p5-8p5-8p5-|-7p4-7p4-7p4-7p4-7p4-7p4-7p4-7p4---|
|---------------------------------|-----------------------------------|
|---------------------------------|-----------------------------------|


  T   T   T   T   T   T   T   T     T   T   T   T   T   T   T   T
  S S S S S S S S S S S S S S S S   S S S S S S S S S S S S S S S S
|---------------------------------|-----------------------------------|
|---------------------------------|-----------------------------------|
|---------------------------------|-----------------------------------|
|-9p6-9p6-9p6-9p6-9p6-9p6-9p6-9p6-|-9p6-9p6-9p6-9p6-9p6-9p6-9p6-9p6---|
|---------------------------------|-----------------------------------|


   T    T    T    T    T    T    T    T
   S S  S S  S S  S S  S S  S S  S S  S S
|-----------------------------------------|
|-----------------------------------------|
|-10p6-10p6-10p6-10p6-10p6-10p6-10p6-10p6-|
|-----------------------------------------|
|-----------------------------------------|


  1.
  T   T   T   T   T   T   T   T
  S S S S S S S S S S S S S S S S
|-----------------------------------o||
|------------------------------------||
|------------------------------------||
|-7p4-7p4-7p4-7p4-7p4-7p4-7p4-7p4---o||
|------------------------------------||


  2.
  T   T   T   T   T
  S S S S S S S S Q  Q                          W
|--------------------------------------|-------------|
|--------------------------------------|-------------|
|--------------------------------------|-------------|
|-7p4-7p4-7p4-7p4-7--------------------|-------------|
|--------------------------------------|-------------|


    Q  S S S S S S S S S S S S   S S S S S S S S S S S S S S S S
||o----------------------------|------------------------------------|
||-------------6-6-6-6---------|---------4-4-4-4--------------------|
||-----4-4-4-4---------7-7-7-7-|-2-2-2-2---------5-5-5-5-0-0-0-0----|
||o-4--------------------------|------------------------------------|
||-----------------------------|------------------------------------|


  Q  S S S S S S S S S S S S   S S S S S S S S S S S S E E
|----------------------------|--------------------------------|
|------------6-6-6-6-9-9-9-9-|-7-7-7-7------------------------|
|----4-4-4-4-----------------|---------5-5-5-5-9-9-9-9--------|
|-4--------------------------|-------------------------5------|
|----------------------------|---------------------------0----|


  Q  S S S S S S S S S S S S   S S S S S S S S S S S S S S S S
|----------------------------|------------------------------------|
|------------6-6-6-6---------|---------4-4-4-4--------------------|
|----4-4-4-4---------7-7-7-7-|-2-2-2-2---------5-5-5-5-0-0-0-0----|
|-4--------------------------|------------------------------------|
|----------------------------|------------------------------------|


                 1.                    2.
  H    +Q   Q    H    +Q   E   +E      W          +W
|--------------|-------------------o||----------|--------*|
|--------------|--------------------||----------|--------*|
|--------------|--------------------||----------|--------*|
|-0----(0)--0--|-4----(4)----------o||-4--------|-(4)----*|
|--------------|-----------6b7r(6)--||----------|--------*|





Comments


Popular Berzerker tabs & chords
Deform Bass Tabs
Last Mistake Bass Tabs
Farewell Tabs
Farewell 1 Tabs
Humanity Tabs
Ignorance Tabs
No One Wins Tabs
Slit Down Tabs
Slit Down 1 Tabs
Y Tabs


Song lyrics



↑ Back to top | Tablatures and chords are parodies/interpretations of the original songs. You may use it for private study, scholarship, research or language learning purposes only
© 2014 AZChords.com Contact us | Privacy policy | DMCA | Add/correct tabs | Request tabs | Top 50 tabs