» » »

Berzerker, February Tabs (ver.1)

Artists:  A B C D E F G H I J K L M N O P Q R S T U V W X Y Z # 

February Tabs (ver.1)

Berzerker Tabs
Rating:
0/5 (0 votes)
February lessons Tabs too difficult? Try these video lessons and learn fast
                Gtr I (A D G C E A) 
Gtr II (A D G C E A) 


 
 4/4
  Gtrs I, II
  H   H     H    H     H    H      H    H
|---------|----------|----------|------------|
|---------|----------|----------|------------|
|-4---5---|-7---10---|-4----5---|--4---------|
|---------|----------|----------|-------3----|
|-2---3---|-5----8---|-2----3---|--2---------|
|---------|----------|----------|-------1----|


    Q  E E T T T T T T T T T T T T T T T T   Q  E Q   Q E   8x   Wx8
||-----------------------------------------|----------------||---------|
||o----------------------------------------|---------------o||---------|
||--4--5-----------------------------------|-4--5-------5---||---------|
||-------2---------------------------------|------3---------||---------|
||o-2--3-0-0-0-0-0-0-0-0-0-2-2-2-2-3-3-3-3-|-2--3-------3--o||---------|
||-----------------------------------------|------1-/12-----||---------|


  
    S S S S S S S S S S S S S S S S   S S S S S S S S S S S S S S S S
||----------------------------------|----------------------------------|
||o---------------------------------|----------------------------------|
||----------------------------------|----------------------------------|
||----------------------------------|----------------------------------|
||o---------------------------------|----------------------------------|
||--5-5-5-5-5-5-5-5-5-5-5-5-5-5-5-5-|-5-5-5-5-5-5-5-5-5-5-5-5-5-5-5-5--|


  S S S S S S S S S S S S S S S S   S S S S S S S S S S S S S S S S
|---------------------------------|-----------------------------------|
|---------------------------------|-----------------------------------|
|---------------------------------|-----------------------------------|
|---------------------------------|-----------------------------------|
|---------------------------------|-----------------------------------|
|-6-6-6-6-6-6-6-6-6-6-6-6-6-6-6-6-|-6-6-6-6-6-6-6-6-6-6-6-6-6-6-6-6---|


  S S S S S S S S S S S S S S S S   S S S S S S S S S S S S S S S S
|---------------------------------|-----------------------------------|
|---------------------------------|-----------------------------------|
|---------------------------------|-----------------------------------|
|---------------------------------|-----------------------------------|
|---------------------------------|-----------------------------------|
|-8-8-8-8-8-8-8-8-8-8-8-8-8-8-8-8-|-8-8-8-8-8-8-8-8-8-8-8-8-8-8-8-8---|


  S S S S S S S S S S S S S S S S   S S S S S S S S S S S S S S S S    4x
|---------------------------------|------------------------------------||
|---------------------------------|-----------------------------------o||
|---------------------------------|------------------------------------||
|---------------------------------|------------------------------------||
|---------------------------------|-----------------------------------o||
|-5-5-5-5-5-5-5-5-5-5-5-5-5-5-5-5-|-5-5-5-5-5-5-5-5-5-5-5-5-5-5-5-5----||


    S S S S S S S S S S S S S S S S  S S S S S S S S S S S S S S S S
||--------------------------------------------------------------------|
||o-------------------------------------------------------------------|
||--------------------------------------------------------------------|
||--------------------------------------------------------------------|
||o-2-2-2-2-2-2-2-2-2-2-2-2-2-2-2-2--3-3-3-3-3-3-3-3-3-3-3-3-3-3-3-3--|
||--------------------------------------------------------------------|


  S S S S S S S S S S S S S S S S  S S S S S S S S S S S S S S S S
|---------------------------------------------------------------------||
|--------------------------------------------------------------------o||
|---------------------------------------------------------------------||
|---------------------------------------------------------------------||
|-2-2-2-2-2-2-2-2-2-2-2-2-2-2-2-2------------------------------------o||
|----------------------------------1-1-1-1-1-1-1-1-1-1-1-1-1-1-1-1----||


  W   W   W    W    W   W   W   W
|---|---|---|-----|---|---|---|----|
|---|---|---|-----|---|---|---|----|
|-4-|-5-|-7-|-10--|-4-|-5-|-4-|----|
|---|---|---|-----|---|---|---|-3--|
|-2-|-3-|-5-|--8--|-2-|-3-|-2-|----|
|---|---|---|-----|---|---|---|-1--|


    S S S S S S S S S S S S S S S S   S S S S S S S S S S S S S S S S
||----------------------------------|----------------------------------|
||o---------------------------------|----------------------------------|
||----------------------------------|----------------------------------|
||----------------------------------|----------------------------------|
||o---------------------------------|----------------------------------|
||--5-5-5-5-5-5-5-5-5-5-5-5-5-5-5-5-|-5-5-5-5-5-5-5-5-5-5-5-5-5-5-5-5--|


  S S S S S S S S S S S S S S S S   S S S S S S S S S S S S S S S S
|---------------------------------|-----------------------------------|
|---------------------------------|-----------------------------------|
|---------------------------------|-----------------------------------|
|---------------------------------|-----------------------------------|
|---------------------------------|-----------------------------------|
|-6-6-6-6-6-6-6-6-6-6-6-6-6-6-6-6-|-6-6-6-6-6-6-6-6-6-6-6-6-6-6-6-6---|


  S S S S S S S S S S S S S S S S   S S S S S S S S S S S S S S S S
|---------------------------------|-----------------------------------|
|---------------------------------|-----------------------------------|
|---------------------------------|-----------------------------------|
|---------------------------------|-----------------------------------|
|---------------------------------|-----------------------------------|
|-8-8-8-8-8-8-8-8-8-8-8-8-8-8-8-8-|-8-8-8-8-8-8-8-8-8-8-8-8-8-8-8-8---|


  S S S S S S S S S S S S S S S S   S S S S S S S S S S S S S S S S
|---------------------------------|------------------------------------||
|---------------------------------|-----------------------------------o||
|---------------------------------|------------------------------------||
|---------------------------------|------------------------------------||
|---------------------------------|-----------------------------------o||
|-5-5-5-5-5-5-5-5-5-5-5-5-5-5-5-5-|-5-5-5-5-5-5-5-5-5-5-5-5-5-5-5-5----||


  W                   +W
|------------------|---------*|
|------------------|---------*|
|------------------|---------*|
|-7----------------|--(7)----*|
|-7----------------|--(7)----*|
|-5----------------|--(5)----*|
            
Submit corrections

comments powered by Disqus
↑ Back to top | Berzerker Tabs for February. Lyrics for acoustic guitar and electric guitar. Tablatures and chords are parodies/interpretations of the original songs. You may use it for private study, scholarship, research or language learning purposes only