>
 >
Canniable Rights

Canniable Rights Guitar Tabs

Berzerker - Canniable Rights chords, tabs, tablatures, lyrics

Guitar lessons | Add/correct | Request | Top 50 tabs Artists:  A B C D E F G H I J K L M N O P Q R S T U V W X Y Z 0-9

Canniable Rights Guitar Tabs – Berzerker

CD, Sheet music, Poster

Do you like Canniable Rights? Share with your friends now
Tabs
Gtr I (A D G C E A) 
Gtr II (A D G C E A) 


 
  Gtr I
  W          +W           H    +E  E E E   +E  E E Q  E E E
|----------|------------|----------------|------------------|
|-6--------|-(6)--------|----------------|------------------|
|-6--------|-(6)--------|-6----(6)-------|------------------|
|-6--------|-(6)--------|-7----(7)-------|------------------|
|-4--------|-(4)--------|-7----(7)-----4-|-(4)-----6----6---|
|----------|------------|-5----(5)-0-5---|-----0-5----5---5-|
|
| Gtr II
| W          +W           W                +W
|----------|------------|----------------|------------------|
|-6--------|-(6)--------|----------------|------------------|
|-6--------|-(6)--------|-6--------------|-(6)--------------|
|-6--------|-(6)--------|-7--------------|-(7)--------------|
|-4--------|-(4)--------|-7--------------|-(7)--------------|
|----------|------------|-5--------------|-(5)--------------|


 4/4
  Gtr I
  W          +H     H      H    +E  E E E   +E  E E Q  E E E
|----------|-------------|----------------|-------------------|
|-6--------|-(6)---------|----------------|-------------------|
|-6--------|-(6)----9----|-6----(6)-------|-------------------|
|-6--------|-(6)----9----|-7----(7)-------|-------------------|
|-4--------|-(4)----7----|-7----(7)-----4-|-(4)-----6----6----|
|----------|--------0----|-5----(5)-0-5---|-----0-5----5---5--|
|
| W          +H     H      W                +W
|----------|-------------|----------------|-------------------|
|-6--------|-(6)---------|----------------|-------------------|
|-6--------|-(6)----9----|-6--------------|-(6)---------------|
|-6--------|-(6)----9----|-7--------------|-(7)---------------|
|-4--------|-(4)----7----|-7--------------|-(7)---------------|
|----------|--------0----|-5--------------|-(5)---------------|


  H    +E  E E E   +E  E E Q  E E E   H    +E  E E E   +E  E E Q  E E E
|----------------|------------------|----------------|--------------------|
|----------------|------------------|----------------|--------------------|
|-9----(9)-------|------------------|-6----(6)-------|--------------------|
|----------------|------------------|-7----(7)-------|--------------------|
|-7----(7)-----6-|-(6)-----4----4---|-7----(7)-----4-|-(4)-----6----6-----|
|----------0-5---|-----0-5----5---5-|-5----(5)-0-5---|-----0-5----5---5---|
|
| W                +W                 W                +W
|----------------|------------------|----------------|--------------------|
|-6--------------|-(6)--------------|----------------|--------------------|
|-6--------------|-(6)--------------|-6--------------|-(6)----------------|
|-6--------------|-(6)--------------|-7--------------|-(7)----------------|
|-4--------------|-(4)--------------|-7--------------|-(7)----------------|
|----------------|------------------|-5--------------|-(5)----------------|


  Gtrs I, II
  W          +H     H      W              W
|----------|-------------|----------|----------|
|-6--------|-(6)---------|----------|----------|
|-6--------|-(6)----9----|-6--------|----------|
|-6--------|-(6)----9----|-7--------|----------|
|-4--------|-(4)----7----|-7--------|----------|
|----------|--------0----|-5--------|----------|


    S S S S S S S S S S S S S S S S   S S S S S S S S S S S S S S S S
||----------------------------------|----------------------------------|
||o---------------------------------|----------------------------------|
||--6-6-6-6-6-6-6-6-6-6-6-6-6-6-6-6-|-8-8-8-8-8-8-8-8-9-9-9-9-9-9-9-9--|
||----------------------------------|----------------------------------|
||o---------------------------------|----------------------------------|
||----------------------------------|----------------------------------|


  S S S S S S S S S S S S S S S S   S S S S S S S S S S S S S S S S
|---------------------------------|------------------------------------||
|---------------------------------|-----------------------------------o||
|---------------------------------|------------------------------------||
|-7-7-7-7-7-7-7-7-7-7-7-7-7-7-7-7-|-7-7-7-7-7-7-7-7-7-7-7-7-7-7-7-7----||
|---------------------------------|-----------------------------------o||
|---------------------------------|------------------------------------||


    S S S S S S S S S S S S S S S S   S S S S S S S S S S S S S S S S
||----------------------------------|----------------------------------|
||o---------------------------------|----------------------------------|
||----------------------------------|----------------------------------|
||----------------------------------|----------------------------------|
||o-4-4-4-4-4-4-4-4-4-4-4-4-4-4-4-4-|-6-6-6-6-6-6-6-6-7-7-7-7-7-7-7-7--|
||----------------------------------|----------------------------------|


  S S S S S S S S S S S S S S S S   S S S S S S S S S S S S S S S S
|---------------------------------|------------------------------------||
|---------------------------------|-----------------------------------o||
|---------------------------------|------------------------------------||
|---------------------------------|------------------------------------||
|---------------------------------|-----------------------------------o||
|-5-5-5-5-5-5-5-5-5-5-5-5-5-5-5-5-|-5-5-5-5-5-5-5-5-5-5-5-5-5-5-5-5----||


  W          +W           W           +W
|----------|------------|-----------|--------|
|-6--------|-(6)--------|-----------|--------|
|-6--------|-(6)--------|-6---------|-(6)----|
|-6--------|-(6)--------|-7---------|-(7)----|
|-4--------|-(4)--------|-7---------|-(7)----|
|----------|------------|-5---------|-(5)----|


  W          +H     H      W          +W
|----------|-------------|----------|--------|
|-6--------|-(6)---------|----------|--------|
|-6--------|-(6)----9----|-6--------|-(6)----|
|-6--------|-(6)----9----|-7--------|-(7)----|
|-4--------|-(4)----7----|-7--------|-(7)----|
|----------|--------0----|-5--------|-(5)----|


 
  Gtr I
   S  S  S  S  S  S  S  S S S S S S S S S
|-----------------------------------------|
|-----------------------------------------|
|-----------------------------------------|
|-----------------------------------------|
|-10-10-10-10-10-10-10-10-9-9-9-9-9-9-9-9-|
|-----------------------------------------|


   S  S  S  S S S S S  S  S  S  S S S S S
|-------------------------------------------|
|-------------------------------------------|
|-------------------------------------------|
|-------------9-9-9-9-----------------------|
|-10-10-10-10---------10-10-10-10-9-9-9-9---|
|-------------------------------------------|


   S  S  S  S S S S S S S S S S S S S
|-------------------------------------|
|-------------------------------------|
|-------------------------------------|
|-------------------------------------|
|-10-10-10-10-7-7-7-7-9-9-9-9-9-9-9-9-|
|-------------------------------------|


   S  S  S  S  S S S S  S  S  S  S S S S S
|-------------------------------------------|
|-------------------------------------------|
|-------------------------------------------|
|------------------9-9----------------------|
|-10-10-10-10--9-9-----10-10-10-10-9-9-9-9--|
|-------------------------------------------|


   S  S  S  S  S  S  S  S S S S S S S S S
|-----------------------------------------|
|-----------------------------------------|
|-----------------------------------------|
|-----------------------------------------|
|-10-10-10-10-10-10-10-10-9-9-9-9-9-9-9-9-|
|-----------------------------------------|
|
|  H                      H
|-----------------------------------------|
|-----------------------------------------|
|-----------------------------------------|
|-----------------------------------------|
|-----------------------------------------|
|--8----------------------7---------------|


   S  S  S  S S S S S  S  S  S  S S S S S
|-------------------------------------------|
|-------------------------------------------|
|-------------------------------------------|
|-------------9-9-9-9-----------------------|
|-10-10-10-10---------10-10-10-10-9-9-9-9---|
|-------------------------------------------|
|
|  Q          Q        Q          Q
|-------------------------------------------|
|-------------------------------------------|
|-------------------------------------------|
|-------------------------------------------|
|-------------7-----------------------------|
|--8-------------------8----------7---------|


   S  S  S  S S S S S S S S S S S S S
|-------------------------------------|
|-------------------------------------|
|-------------------------------------|
|-------------------------------------|
|-10-10-10-10-7-7-7-7-9-9-9-9-9-9-9-9-|
|-------------------------------------|
|
|  Q          Q       H
|-------------------------------------|
|-------------------------------------|
|-------------------------------------|
|-------------------------------------|
|-------------------------------------|
|--8----------5-------7---------------|


   S  S  S  S S S S S  S  S  S  S S S S S
|-------------------------------------------|
|-------------------------------------------|
|-------------------------------------------|
|-----------------9-9-----------------------|
|-10-10-10-10-9-9-----10-10-10-10-9-9-9-9---|
|-------------------------------------------|
|
|  Q          E   E    Q          Q
|-------------------------------------------|
|-------------------------------------------|
|-------------------------------------------|
|-------------------------------------------|
|-----------------7-------------------------|
|--8----------7--------8----------7---------|


   S  S  S  S  S  S  S  S S S S S S S S S
|-----------------------------------------|
|-----------------------------------------|
|-----------------------------------------|
|-----------------------------------------|
|-10-10-10-10-10-10-10-10-9-9-9-9-9-9-9-9-|
|-----------------------------------------|
|
|  S  S  S  S  S  S  S  S S S S S S S S S
|-----------------------------------------|
|-----------------------------------------|
|-----------------------------------------|
|-----------------------------------------|
|-----------------------------------------|
|--8--8--8--8--8--8--8--8-7-7-7-7-7-7-7-7-|


   S  S  S  S S S S S  S  S  S  S S S S S
|-------------------------------------------|
|-------------------------------------------|
|-------------------------------------------|
|-------------9-9-9-9-----------------------|
|-10-10-10-10---------10-10-10-10-9-9-9-9---|
|-------------------------------------------|
|
|  S  S  S  S S S S S  S  S  S  S S S S S
|-------------------------------------------|
|-------------------------------------------|
|-------------------------------------------|
|-------------------------------------------|
|-------------7-7-7-7-----------------------|
|--8--8--8--8----------8--8--8--8-7-7-7-7---|


   S  S  S  S S S S S S S S S S S S S
|-------------------------------------|
|-------------------------------------|
|-------------------------------------|
|-------------------------------------|
|-10-10-10-10-7-7-7-7-9-9-9-9-9-9-9-9-|
|-------------------------------------|
|
|  S  S  S  S S S S S S S S S S S S S
|-------------------------------------|
|-------------------------------------|
|-------------------------------------|
|-------------------------------------|
|-------------------------------------|
|--8--8--8--8-5-5-5-5-7-7-7-7-7-7-7-7-|


   S  S  S  S S S S S  S  S  S  S S S S S
|-------------------------------------------|
|-------------------------------------------|
|-------------------------------------------|
|-----------------9-9-----------------------|
|-10-10-10-10-9-9-----10-10-10-10-9-9-9-9---|
|-------------------------------------------|
|
|  S  S  S  S S S S S  S  S  S  S S S S S
|-------------------------------------------|
|-------------------------------------------|
|-------------------------------------------|
|-------------------------------------------|
|-----------------7-7-----------------------|
|--8--8--8--8-7-7------8--8--8--8-7-7-7-7---|


   S  S  S  S  S  S  S  S S S S S S S S S
|-----------------------------------------|
|-----------------------------------------|
|-----------------------------------------|
|-----------------------------------------|
|-10-10-10-10-10-10-10-10-9-9-9-9-9-9-9-9-|
|-----------------------------------------|
|
|  S  S  S  S  S  S  S  S S S S S S S S S
|-----------------------------------------|
|-----------------------------------------|
|-----------------------------------------|
|-----------------------------------------|
|-----------------------------------------|
|--3--3--3--3--3--3--3--3-2-2-2-2-2-2-2-2-|


   S  S  S  S S S S S  S  S  S  S S S S S
|-------------------------------------------|
|-------------------------------------------|
|-------------------------------------------|
|-------------9-9-9-9-----------------------|
|-10-10-10-10---------10-10-10-10-9-9-9-9---|
|-------------------------------------------|
|
|  S  S  S  S S S S S  S  S  S  S S S S S
|-------------------------------------------|
|-------------------------------------------|
|-------------------------------------------|
|-------------------------------------------|
|-------------2-2-2-2-----------------------|
|--3--3--3--3----------3--3--3--3-2-2-2-2---|


   S  S  S  S S S S S S S S S S S S S
|-------------------------------------|
|-------------------------------------|
|-------------------------------------|
|-------------------------------------|
|-10-10-10-10-7-7-7-7-9-9-9-9-9-9-9-9-|
|-------------------------------------|
|
|  S  S  S  S S S S S S S S S S S S S
|-------------------------------------|
|-------------------------------------|
|-------------------------------------|
|-------------------------------------|
|-------------------------------------|
|--3--3--3--3-0-0-0-0-2-2-2-2-2-2-2-2-|


   S  S  S  S S S S S  S  S  S  S S S S S
|-------------------------------------------|
|-------------------------------------------|
|-------------------------------------------|
|-----------------9-9-----------------------|
|-10-10-10-10-9-9-----10-10-10-10-9-9-9-9---|
|-------------------------------------------|
|
|  S  S  S  S S S S S  S  S  S  S S S S S
|-------------------------------------------|
|-------------------------------------------|
|-------------------------------------------|
|-------------------------------------------|
|-----------------2-2-----------------------|
|--3--3--3--3-2-2------3--3--3--3-2-2-2-2---|



    Gtrs I, II
    S S S S S S S S S S S S S S S S   S S S S S S S S S S S S S S S S
||----------------------------------|----------------------------------|
||o---------------------------------|----------------------------------|
||--6-6-6-6-6-6-6-6-6-6-6-6-6-6-6-6-|-8-8-8-8-8-8-8-8-9-9-9-9-9-9-9-9--|
||----------------------------------|----------------------------------|
||o---------------------------------|----------------------------------|
||----------------------------------|----------------------------------|


                                    1.
  S S S S S S S S S S S S S S S S   S S S S S S S S S S S S S S S S
|---------------------------------|------------------------------------||
|---------------------------------|-----------------------------------o||
|---------------------------------|------------------------------------||
|-7-7-7-7-7-7-7-7-7-7-7-7-7-7-7-7-|-7-7-7-7-7-7-7-7-7-7-7-7-7-7-7-7----||
|---------------------------------|-----------------------------------o||
|---------------------------------|------------------------------------||


  2.        
  E E H.          S S S S S S S S S S S S S S S S
|-------------||----------------------------------|
|-------------||o---------------------------------|
|-------------||--6-6-6-6-6-6-6-6-6-6-6-6-6-6-6-6-|
|-7-----------||----------------------------------|
|-------------||o---------------------------------|
|-------------||----------------------------------|


  S S S S S S S S S S S S S S S S
|-----------------------------------|
|-----------------------------------|
|-8-8-8-8-8-8-8-8-9-9-9-9-9-9-9-9---|
|-----------------------------------|
|-----------------------------------|
|-----------------------------------|


  S S S S S S S S S S S S S S S S   S S S S S S S S S S S S S S S S
|---------------------------------|------------------------------------||
|---------------------------------|-----------------------------------o||
|---------------------------------|------------------------------------||
|-7-7-7-7-7-7-7-7-7-7-7-7-7-7-7-7-|-7-7-7-7-7-7-7-7-7-7-7-7-7-7-7-7----||
|---------------------------------|-----------------------------------o||
|---------------------------------|------------------------------------||


    S S S S S S S S S S S S S S S S   S S S S S S S S S S S S S S S S
||----------------------------------|----------------------------------|
||o---------------------------------|----------------------------------|
||----------------------------------|----------------------------------|
||----------------------------------|----------------------------------|
||o-4-4-4-4-4-4-4-4-4-4-4-4-4-4-4-4-|-6-6-6-6-6-6-6-6-7-7-7-7-7-7-7-7--|
||----------------------------------|----------------------------------|


  1.
  S S S S S S S S S S S S S S S S   S S S S S S S S S S S S S S S S
|---------------------------------|------------------------------------||
|---------------------------------|-----------------------------------o||
|---------------------------------|------------------------------------||
|---------------------------------|------------------------------------||
|---------------------------------|-----------------------------------o||
|-5-5-5-5-5-5-5-5-5-5-5-5-5-5-5-5-|-5-5-5-5-5-5-5-5-5-5-5-5-5-5-5-5----||


  2.
  S S S S S S S S S S S S S S S S
|---------------------------------|
|---------------------------------|
|---------------------------------|
|---------------------------------|
|-9-9-9-9-9-9-9-9-9-9-9-9-9-9-9-9-|
|---------------------------------|


   S  S  S  S  S  S  S  S  S  S  S  S  S  S  S  S
|---------------------------------------------------|
|---------------------------------------------------|
|---------------------------------------------------|
|---------------------------------------------------|
|-12-12-12-12-12-12-12-12-12-12-12-12-12-12-12-12---|
|---------------------------------------------------|


   E Q H.
|----------*|----|
|----------*|----|
|----------*|----|
|----------*|----|
|-12-------*|----|
|----------*|----|






Duration Legend
---------------
W - whole; H - half; Q - quarter; E - 8th; S - 16th; T - 32nd; X - 64th; a - acciaccatura
+ - note tied to previous; . - note dotted; .. - note double dotted
Uncapitalized letters represent notes that are staccato (1/2 duration)
Irregular groupings are notated above the duration line
Duration letters will always appear directly above the note/fret number it represents the
duration for.  Duration letters with no fret number below them represent rests.  Multi-
bar rests are notated in the form Wxn, where n is the number of bars to rest for.  Low
melody durations appear below the staff

Tablature Legend
----------------
 h   - hammer-on
 p   - pull-off
 b   - bend
 pb  - pre-bend
 r   - bend release (if no number after the r, then release immediately)
 /\  - slide into or out of (from/to "nowhere")
 s   - legato slide
 S   - shift slide
<n> - natural harmonic
[n]  - artificial harmonic
n(n) - tapped harmonic
 ~   - vibrato
 tr  - trill
 T   - tap
 TP  - trem. picking
 PM  - palm muting
\n/  - tremolo bar dip; n = amount to dip
 \n  - tremolo bar down
 n/  - tremolo bar up
/n\  - tremolo bar inverted dip
 =   - hold bend; also acts as connecting device for hammers/pulls
 <> - volume swell (louder/softer)
 x   - on rhythm slash represents muted slash
 o   - on rhythm slash represents single note slash

Misc Legend
-----------
 |  - bar
||  - double bar
||o - repeat start
o|| - repeat end
*|  - double bar (ending)
 :  - bar (freetime)
 $  - Segno
 &  - Coda
Tempo markers - <E/E./Q/Q./H/H.> = BPM(8/16=s8/s16), where s8 = swing 8ths, s16 = swing 16ths





Comments


Popular Berzerker tabs & chords
Cannibal Rights Bass Tabs
Disregard Bass Tabs
Forever Bass Tabs
Slit Down Bass Tabs
Burnt 1 Tabs
Corporal Jigsore Quandary Intro Tabs
Ignorance Tabs
Massacre Tabs
Pain Tabs
Reality Tabs


Song lyrics



↑ Back to top | Tablatures and chords are parodies/interpretations of the original songs. You may use it for private study, scholarship, research or language learning purposes only
© 2014 AZChords.com Contact us | Privacy policy | DMCA | Add/correct tabs | Request tabs | Top 50 tabs