>
 >
All About You

All About You Bass Tabs

Berzerker - All About You chords, tabs, tablatures, lyrics

Guitar lessons | Add/correct | Request | Top 50 tabs Artists:  A B C D E F G H I J K L M N O P Q R S T U V W X Y Z 0-9

All About You Bass Tabs – Berzerker

CD, Sheet music, Poster

Do you like All About You? Share with your friends now
Bass Tabs
Band: The Berzerker
Record Label: Earache
Tuning: A D G C E

----------------------------------------|
----------------------------------------|
----------------------------------------|
---7-6-5-6---7-6-5-6---7-6-5-6----------|
-0---------0---------0---------2-5-1-4--|X2
 trem.................................

-------------------------------------------------------|
-------------------------------------------------------|
-------------------------------------------------------|
-8-8-7-----8-8-7-----8-8-7------------4-----7---8------|
-------5-1-------5-1-------5-1--1-3-4---3-4---6---8-4--|
 trem.........................  pm. .   . .   .

----------------------------------------------------|
----------------------------------------------------|
----------------------------------------------------|
-----------7-5-6---------7-5-6---------7-6---7-6----|
-000000000-------0000000-------0000000-----1-----4--|X2
 pm....... trem. pm..... trem. pm..... trem.......

----------------------------------------------|
----------------------------------------------|
----------------------------------------------|
-------6----6---5----------6------------------|
-5-7-8---4----4---4--5-7-8---3--222222111111--|
            trem...             pm..........

----------------------------------------------------|
----------------------------------------------------|
----------------------------------------------------|
-----------7-5-6---------7-5-6---------7-6---7-6----|
-000000000-------0000000-------0000000-----1-----4--|X2
 pm....... trem. pm..... trem. pm..... trem.......


----------------------------------------------|
----------------------------------------------|
----------------------------------------------|
-------6----6---5----------6------------------|
-5-7-8---4----4---4--5-7-8---3--222222111111--|
            trem...             pm..........

----------------------------------------|
----------------------------------------|
----------------------------------------|
---7-6-5-6---7-6-5-6---7-6-5-6----------|
-0---------0---------0---------2-5-1-4--|
 trem.................................

-------------------------------------------------------|
-------------------------------------------------------|
-------------------------------------------------------|
---7-6-5-6---7-6-5-6---7-6-5-6--------4-----7---8------|
-0---------0---------0----------1-3-4---3-4---6---8-4--|
 trem.......................... pm. .   . .   .

------------------------------------------------------------------------------|
------------------------------------------------------------------------------|
---------------------------------------------------------------------8---8----|
-----------------------------------------------------------------------6---6--|
-0-2-3-0-3-2-0-0-3-0-1-0-2-3-0-3-2-0-0-3-0-1-0-2-3-0-3-2-0-0-3-0-1-0----------|
 pm. .   . . .   . . . . . .   . . .   . . . . . .   . . .   . . . .   .   .

-------------------------------------------------------------------------------|
-------------------------------------------------------------------------------|
-7-----7-----------------------------------------------------------------------|
---7-4---7-4-------------------------------------------------------------------|
-------------0-2-3-0-3-2-0-0-3-0-1-0-2-3-0-3-2-0-0-3-0-1-0-2-3-0-3-2-0-0-3-0-1-|
   pm.   . . . . .   . . .   . . . . . .   . . .   . . . . . .   . . . .. .. .

------------------|
------------------|
-6---6---5---5----|
---4---3---3---3--|
------------------|
   pm  .   .   .

----------------------------------------|
----------------------------------------|
----------------------------------------|
---7-6-5-6---7-6-5-6---7-6-5-6----------|
-0---------0---------0---------2-5-1-4--|X2
 trem.................................

--------------------------------------------|
--------------------------------------------|
-7---------4-4-------6-7--------------------|
---------------5-4--------------------------|
---5-54200---------0-----555-000-5-7-4-2-0--|X2
trem.pm... trem......... pm. ... trem.....

----------------------------------------------------|
----------------------------------------------------|
----------------------------------------------------|
-----------7-5-6---------7-5-6---------7-6---7-6----|
-000000000-------0000000-------0000000-----1-----4--|X2
 pm....... trem. pm..... trem. pm..... trem.......


--------------------------------------------|
--------------------------------------------|
--------------------------------------------|
-------6----6---5---------6-----------------|
-5-7-8---4----4---4-5-7-8---4-222222111111--|
            trem...          pm..........





Comments


Popular Berzerker tabs & chords
Cannibal Rights Bass Tabs
Chronological Order Of Putrefaction Bass Tabs
Last Mistake Bass Tabs
Burnt 1 Tabs
Cannible Rights Tabs
Disregard Tabs
Humanity Tabs
Pain 1 Tabs
Slit Down 1 Tabs
Y Tabs


Song lyrics



↑ Back to top | Tablatures and chords are parodies/interpretations of the original songs. You may use it for private study, scholarship, research or language learning purposes only
© 2014 AZChords.com Contact us | Privacy policy | DMCA | Add/correct tabs | Request tabs | Top 50 tabs