>
 >
Johnny B Goode Complete

Johnny B Goode Complete Guitar Tabs

Berry Chuck - Johnny B Goode Complete chords, tabs, tablatures, lyrics

Guitar lessons | Add/correct | Request | Top 50 tabs Artists:  A B C D E F G H I J K L M N O P Q R S T U V W X Y Z 0-9

Johnny B Goode Complete Guitar Tabs – Berry Chuck

CD, Sheet music, Poster

Do you like Johnny B Goode Complete? Share with your friends now
Tabs
Johnny B Goode                                  

I know this is the exact version because I tested it on Guitar PRO on my computer.
                                                                     Chuck Berry
Guitar



                                                     
E||----------------------|--7--7--7--7--7--7--7--7--|
B||----------------7--9--|--7--7--7--7--7--7--7--7--|
G||-----------7/8--------|--------------------------|
D||----------------------|--------------------------|
A||----------------------|--------------------------|
E||----------------------|--------------------------|


                                                       
--7------------------------|--------------------------|
-----10--9--7--------------|--------------------------|
---------------7--8--------|--------------------------|
---------------------9--9--|--9--9--9--9--9--9--9--9--|
---------------------------|--9--9--9--9--9--9--9--9--|
---------------------------|--------------------------|


                                                                               
-------------------------|--------------------------|--7-----------------7----|
-----7--9--7-------------|--------7--------7--------|--7--------7--------7----|
--8--8--8--8/-6--4-------|--10b------10b------10b---|-----10b------10b--------|
--------------------6----|--------------------------|-------------------------|
-------------------------|--------------------------|-------------------------|
-------------------------|--------------------------|-------------------------|


                                                     
--------------------------|--------------------7----|
--------7--------7--------|--7--------7--------7----|
--10b------10b------10b---|-----10b------10b--------|
--------------------------|-------------------------|
--------------------------|-------------------------|
--------------------------|-------------------------|


                                                          
--------7------------9--7--|----------------------7------|
-----------10--9--7--------|--10--9--7----------7----10/-|
--10b----------------------|------------9--8--8----------|
---------------------------|-----------------------------|
---------------------------|-----------------------------|
---------------------------|-----------------------------|


                                                                              
----------------------------|-------------------|----------------------------|
--9--7------7------7--9--7--|-------------------|----------------------------|
--------10b----10b----9--8--|-------------------|----------------------------|
----------------------------|--9----------------|----------------------------|
----------------------------|-------------------|--9--9--11--9--9--9--11--9--|
----------------------------|-------------------|--7--7--7---7--7--7--7---7--|


                                                          
----------------------------|----------------------------|
----------------------------|----------------------------|
----------------------------|----------------------------|
----------------------------|----------------------------|
--9--9--11--9--9--9--11--9--|--9--9--11--9--9--9--11--9--|
--7--7--7---7--7--7--7---7--|--7--7--7---7--7--7--7---7--|


                                                          
----------------------------|----------------------------|
----------------------------|----------------------------|
----------------------------|----------------------------|
----------------------------|--9--9--11--9--9--9--11--9--|
--9--9--11--9--9--9--11--9--|--7--7--7---7--7--7--7---7--|
--7--7--7---7--7--7--7---7--|----------------------------|


                                                          
----------------------------|----------------------------|
----------------------------|----------------------------|
----------------------------|----------------------------|
--9--9--11--9--9--9--11--9--|----------------------------|
--7--7--7---7--7--7--7---7--|--9--9--11--9--9--9--11--9--|
----------------------------|--7--7--7---7--7--7--7---7--|


                                                                
----------------------------|----------------------------------|
----------------------------|----------------------------------|
----------------------------|----------------------------------|
----------------------------|--11--11--13--11--11--11--13--11--|
--9--9--11--9--9--9--11--9--|--9---9---9---9---9---9---9---9---|
--7--7--7---7--7--7--7---7--|----------------------------------|


                                                                
----------------------------------|----------------------------|
----------------------------------|----------------------------|
----------------------------------|----------------------------|
--11--11--13--11--11--11--13--11--|----------------------------|
--9---9---9---9---9---9---9---9---|--9--9--11--9--9--9--11--9--|
----------------------------------|--7--7--7---7--7--7--7---7--|


                                                                               
----------------------------|------------------------------|------------------|
----------------------------|----10--10--10--10--10--12/---|------------------|
----------------------------|----11--11--11--11--11--10/---|------------------|
----------------------------|------------------------------|------------------|
--9--9--11--9--9--9--11--9--|------------------------------|------------------|
--7--7--7---7--7--7--7---7--|------------------------------|------------------|


                                                  
------------------------------|------------------|
----10--10--10--10--10--12/---|------------------|
----11--11--11--11--11--10/---|------------------|
------------------------------|------------------|
------------------------------|------------------|
------------------------------|------------------|


                                                  
------------------------------|------------------|
----10--10--10--10--10--12/---|------------------|
----11--11--11--11--11--10/---|------------------|
------------------------------|------------------|
------------------------------|------------------|
------------------------------|------------------|


                                                                                
------------------------------|------------------|-----------------------------|
----10--10--10--10--10--12/---|------------------|----10--10--10--10--12----9/-|
----11--11--11--11--11--10/---|------------------|----11--11--11--11--10----9/-|
------------------------------|------------------|-----------------------------|
------------------------------|------------------|-----------------------------|
------------------------------|------------------|-----------------------------|


                                                         
------------------|------------------|------------------|
------------------|------------------|------------------|
------------------|------------------|------------------|
------------------|------------------|------------------|
------------------|------------------|------------------|
------------------|------------------|------------------|


                                                          
----------------------------|----------------------------|
----------------------------|----------------------------|
----------------------------|----------------------------|
----------------------------|----------------------------|
--9--9--11--9--9--9--11--9--|--9--9--11--9--9--9--11--9--|
--7--7--7---7--7--7--7---7--|--7--7--7---7--7--7--7---7--|


                                                          
----------------------------|----------------------------|
----------------------------|----------------------------|
----------------------------|----------------------------|
----------------------------|----------------------------|
--9--9--11--9--9--9--11--9--|--9--9--11--9--9--9--11--9--|
--7--7--7---7--7--7--7---7--|--7--7--7---7--7--7--7---7--|


                                                          
----------------------------|----------------------------|
----------------------------|----------------------------|
----------------------------|----------------------------|
--9--9--11--9--9--9--11--9--|--9--9--11--9--9--9--11--9--|
--7--7--7---7--7--7--7---7--|--7--7--7---7--7--7--7---7--|
----------------------------|----------------------------|


                                                          
----------------------------|----------------------------|
----------------------------|----------------------------|
----------------------------|----------------------------|
----------------------------|----------------------------|
--9--9--11--9--9--9--11--9--|--9--9--11--9--9--9--11--9--|
--7--7--7---7--7--7--7---7--|--7--7--7---7--7--7--7---7--|


                                                                      
----------------------------------|----------------------------------|
----------------------------------|----------------------------------|
----------------------------------|----------------------------------|
--11--11--13--11--11--11--13--11--|--11--11--13--11--11--11--13--11--|
--9---9---9---9---9---9---9---9---|--9---9---9---9---9---9---9---9---|
----------------------------------|----------------------------------|


                                                          
----------------------------|----------------------------|
----------------------------|----------------------------|
----------------------------|----------------------------|
----------------------------|----------------------------|
--9--9--11--9--9--9--11--9--|--9--9--11--9--9--9--11--9--|
--7--7--7---7--7--7--7---7--|--7--7--7---7--7--7--7---7--|


                                                                         
----------------------------|------------------------|------------------|
--------7--7------7------7--|------7------7----------|------------------|
----10b-------10b----10b----|--10b----10b------------|------------------|
----------------------------|------------------------|------------------|
----------------------------|------------------------|------------------|
----------------------------|------------------------|------------------|


                                                                             
----------------------|--7--7--7--7--7-----------|--7--7--7--7--7-----------|
----------------7-----|--7--7--7--7--7--9--------|--7--7--7--7--7--9--------|
-----------7/8-----9--|-----------------9--8-----|-----------------9--8--8--|
----------------------|-----------------------9--|-----------------------9--|
----------------------|--------------------------|-----------------------9--|
----------------------|--------------------------|--------------------------|


                                                                               
--7-----------7-----------|--7----7-----7-----------|----------7--------9--7--|
--7--9--7-----7--9--7-----|--7----7-----7-----7-----|-------------10----------|
-----9--7--------9--8-----|----------9-----9--8-----|----10b------------------|
-----------9-----------9--|----------------------9--|-------------------------|
-----------9-----------9--|-------------------------|-------------------------|
--------------------------|-------------------------|-------------------------|


                                                        
---------7------------7--7--|--7-----------7--7--7--7--|
--10--9--7----------7-7-----|-----9--7-----7-----------|
------------9--8--8---------|-----------8--------------|
----------------------------|--------------------------|
----------------------------|--------------------------|
----------------------------|--------------------------|


                                                                             
--7-----------7-----------|--7--7--7--7--7-----------|----------------------|
-----9--7-----7--9--7-----|--7--7--7--7--7--9--------|----9b---9b---9b---9b-|
-----------8-----------8--|-----------------9--8-----|----9b---9b---9b---9b-|
--------------------------|-----------------------9--|----------------------|
--------------------------|--------------------------|----------------------|
--------------------------|--------------------------|----------------------|


                                                                       
-----------------------|-------------------|--7--7--7--7--7-----------|
--9--7------9--7-------|-------------------|--7--7--7--7--7--9--------|
--9--8------9--8-------|--8----------------|-----------------9--8-----|
------------------9----|--9----------------|-----------------------9--|
-----------------------|--9----------------|--------------------------|
-----------------------|-------------------|--------------------------|


                                                      
--7--7--7--7--7-----------|--7-----------7-----------|
--7--7--7--7--7--9--------|--7--9--7-----7--9--7-----|
-----------------9--8--8--|-----9--7--------9--8-----|
-----------------------9--|-----------9-----------9--|
-----------------------9--|-----------9-----------9--|
--------------------------|--------------------------|


                                                                          
--7-----------7-----------|-----------7-------7--|-------7-------7-------|
--7--9--7-----7-----------|------9b---7--9b---7--|--9b---7--9b---7--9b---|
-----9--8--------9--8--8--|------9b------9b------|--9b------9b------9b---|
-----------9-----------9--|----------------------|-----------------------|
--------9-----------------|----------------------|-----------------------|
--------------------------|----------------------|-----------------------|


                                                                              
--7---------7-------7--|-------7-------7--7--7--|--10b-7--9--7---------------|
--7----9b---7--9b---7--|--9b---7--9b---7--7--7--|------7--7--7--10--9--7-----|
-------9b------9b------|--9b------9b------------|---------------10--9--8-----|
-----------------------|------------------------|-------------------------x--|
-----------------------|------------------------|----------------------------|
-----------------------|------------------------|----------------------------|


                                                                           
-----------------------------|-------7----7--7--------|-------------------|
------7------7------7--------|-------7----7--7--9--7--|-------------------|
--10b----10b----10b----9--8--|------------------9--8--|-------------------|
-----------------------------|--x---------------------|--9----------------|
-----------------------------|------------------------|-------------------|
-----------------------------|------------------------|-------------------|


                                                          
----------------------------|----------------------------|
----------------------------|----------------------------|
----------------------------|----------------------------|
----------------------------|----------------------------|
--9--9--11--9--9--9--11--9--|--9--9--11--9--9--9--11--9--|
--7--7--7---7--7--7--7---7--|--7--7--7---7--7--7--7---7--|


                                                          
----------------------------|----------------------------|
----------------------------|----------------------------|
----------------------------|----------------------------|
----------------------------|----------------------------|
--9--9--11--9--9--9--11--9--|--9--9--11--9--9--9--11--9--|
--7--7--7---7--7--7--7---7--|--7--7--7---7--7--7--7---7--|


                                                          
----------------------------|----------------------------|
----------------------------|----------------------------|
----------------------------|----------------------------|
--9--9--11--9--9--9--11--9--|--9--9--11--9--9--9--11--9--|
--7--7--7---7--7--7--7---7--|--7--7--7---7--7--7--7---7--|
----------------------------|----------------------------|


                                                          
----------------------------|----------------------------|
----------------------------|----------------------------|
----------------------------|----------------------------|
----------------------------|----------------------------|
--9--9--11--9--9--9--11--9--|--9--9--11--9--9--9--11--9--|
--7--7--7---7--7--7--7---7--|--7--7--7---7--7--7--7---7--|


                                                                      
----------------------------------|----------------------------------|
----------------------------------|----------------------------------|
----------------------------------|----------------------------------|
--11--11--13--11--11--11--13--11--|--11--11--13--11--11--11--13--11--|
--9---9---9---9---9---9---9---9---|--9---9---9---9---9---9---9---9---|
----------------------------------|----------------------------------|


                                                          
----------------------------|----------------------------|
----------------------------|----------------------------|
----------------------------|----------------------------|
----------------------------|----------------------------|
--9--9--11--9--9--9--11--9--|--9--9--11--9--9--9--11--9--|
--7--7--7---7--7--7--7---7--|--7--7--7---7--7--7--7---7--|


                                                                           
------------------------|------------------------|------------------------|
------------10--10--10--|--10--12--10------------|------------10--10--10--|
------------11--11--11--|--11--11--11------------|------------11--11--11--|
------------------------|------------------------|------------------------|
------------------------|------------------------|------------------------|
------------------------|------------------------|------------------------|


                                                                           
------------------------|------------------------|------------------------|
--10--12--10/-----------|------------10--10--10--|--10--12--10/-----------|
--11--11--11/-----------|------------11--11--11--|--11--11--11/-----------|
------------------------|------------------------|------------------------|
------------------------|------------------------|------------------------|
------------------------|------------------------|------------------------|


                                                      
------------------------|----------------------------|
------------10--10--10--|--10--12--10------10----10--|
------------11--11--11--|--11--11--11------11----11--|
------------------------|----------------------------|
------------------------|----------------------------|
------------------------|----------------------------|


                                                                       
--------------------------|------------------|------------------------|
--12----------10--10--12--|------------------|------------------------|
--11----------11--11--11--|------------------|--4--4-------4--4-------|
--------------------------|------------------|--4--4----x--4--4----x--|
--------------------------|------------------|------------------------|
--------------------------|------------------|------------------------|


                       
---------------------||
---------------------||
--4--4----4----------||
--4--4----4----------||
---------------------||
---------------------||





Comments


Popular Berry Chuck tabs & chords
Earth Angel Chords
Johnny B Goode Chords
No Particular Place To Go Chords
Come On Tabs
Johhny B Goode Tabs
Johnny B Good Tabs
Maybellene Tabs
Memphis Tennessee 1 Tabs
No Particular Place To Go 1 Tabs
Roll Over Beethoven 1 Tabs


Song lyrics



↑ Back to top | Tablatures and chords are parodies/interpretations of the original songs. You may use it for private study, scholarship, research or language learning purposes only
© 2014 AZChords.com Contact us | Privacy policy | DMCA | Add/correct tabs | Request tabs | Top 50 tabs