» » »

Johnny B Goode Tabs (ver.2)

Artists:  A B C D E F G H I J K L M N O P Q R S T U V W X Y Z # 

Johnny B Goode Tabs (ver.2)

Berry Chuck
Rating:
0/5 (0 votes)

Hard to play? Try these video lessons and learn fast.
                Intro to Johnny B Goode (Chuck Berry)
                          =======================




s = slide
h = hammer-on
p = pull-off
b = bend


E--------5s6-6-6-5s6-6-6-5s6-6-6---------------|---------------------------
B----6-8-5s6-6-6-5s6-6-6-5s6-6-6-9-6-----------|---------------------------
G--7---------------------------------8-6h7-----|-6s7-7-7-6s7-7-7-6s7-7-----
D------------------------------------------8-8-|-7s8-8-8-7s8-8-8-7s8-8-----
A----------------------------------------------|---------------------------
E----------------------------------------------|---------------------------

                         10 times                                |rake|
E----------------------||---------||------6-------8-6-----------------6----
B------6-8-6-----------||------6--||--------9-8-6-----9-8-6---------6------
G--5s7-7-7-7-5s7-5-----||-8b10----||-8b10-------------------8-6h7-7--------
D------------------8-5-||---------||---------------------------------------
A----------------------||---------||---------------------------------------
E----------------------||---------||---------------------------------------

E------------------------------|-------------------------------------------
B--9-8-6------6------6---------|-------------------------------------------
G--------8b10---8b10---8-6h7---|-------------------------------------------
D----------------------------8-|-------------------------------------------
A------------------------------|-------------------------------------------
E------------------------------|-------------------------------------------


Chords
	
Walking Bass 

| Bb7 | === | === | === | Eb7 | === |
| Bb7 | === | F7  | === | Bb7 | Bb7 | (chorus) or
                              | F7  | (verse)






-- 
Nigel
            
Hard to play? Try these video lessons and learn fast. | Correct




comments powered by Disqus
↑ Back to top | Tablatures and chords are parodies/interpretations of the original songs. You may use it for private study, scholarship, research or language learning purposes only