>
 >
Johhny B Goode

Johhny B Goode Guitar Tabs

Berry Chuck - Johhny B Goode chords, tabs, tablatures, lyrics

Guitar lessons | Add/correct | Request | Top 50 tabs Artists:  A B C D E F G H I J K L M N O P Q R S T U V W X Y Z 0-9

Johhny B Goode Guitar Tabs – Berry Chuck

CD, Sheet music, Poster

Do you like Johhny B Goode? Share with your friends now
Tabs
dont know the order but these are the two parts i know

/-slide
hb-hammer and then bend note (5-hb7 wood mean 5 then hammer and bend 7) 

E---------55555--------55555--------5-------5-------------------
B---------55555--------55555--------5-------5-------------------
G-----5-7-------7-5----------7-5------7-5-----7-5----5-7-8-9----
D-5/7---------------7------------7--------7-------7-------------
A---------------------------------------------------------------
E---------------------------------------------------------------

E------------
B----5-------
G------hb7---      20x
D------------
A------------
E------------

E----8-5------------------------------------------
B--------8-5--------------------------------------
G-------------7-5----5-7b1/2--5---5---------------
D------------------7------------7---7-5-7---------
A-----------------------------------------5-6-7---
E-------------------------------------------------

then the chords part just do these barchords and put ur pinky 2 frets
over on the seconds strign u hit
      A
E------------
B------------
G------------
D--2---------
A--0---------
E------------
       D    
E------------
B------------
G------------
D---7--------
A---5--------
E------------
       E
E------------
B------------
G------------
D---9--------
A---7--------
E------------





Comments


Popular Berry Chuck tabs & chords
Around And Around Chords
C Est La Vie Chords
House Of Blue Lights Chords
My Ding A Ling Chords
Nadine Chords
Carol Tabs
House Of Blue Lights Tabs
Johnny B Good Tabs
Johnny B Good Intro Tabs
Roll Over Beethoven 1 Tabs


Song lyrics



↑ Back to top | Tablatures and chords are parodies/interpretations of the original songs. You may use it for private study, scholarship, research or language learning purposes only
© 2014 AZChords.com Contact us | Privacy policy | DMCA | Add/correct tabs | Request tabs | Top 50 tabs