» » »

Zertarako Amestu Tabs (ver.1)

Artists:  A B C D E F G H I J K L M N O P Q R S T U V W X Y Z # 

Zertarako Amestu Tabs (ver.1)

Berri Txarrak
Rating:
0/5 (0 votes)

Hard to play? Try these video lessons and learn fast.
                A

------------------------|
------------------------|
-------0--------0-------|
----3--------3----------|
----------------------3-|
-1--------1--------1----|

B

--------------------------|
--------------------------|
-----------------0--------|
-5-----5------5--------5--|
--------------------------|
----3------3--------3-----|

C

--------------------------|
--------------------------|
----------0-----0----0--0-|
8---8---8-----------------|
--------------8----8---8--|
--5---5-----5-----5---5---|

luego se repiten la parte A y B
y luego toka un acorde asi... (x16 golpes)

D

-6--------------------|
-x--------------------|
-x--------------------|
-8--------------------|
-5--------------------|
-5--------------------|

Luego repite A,B y D dos veces mas y convierte
el punteo dEl principio en acordes...
y empieza a cantar Eta lo bagaude...
estos tres acordes d aki abajo
los repite mientras canta.

---------------------|
---------------------|
---------------------|
-3-3-3-3-3-3-3-3-----|
-1-1-1-1-1-1-1-1-----|
-1-1-1-1-1-1-1-1-----|

---------------------|
---------------------|
---------------------|
-5-5-5-5-5-5-5-5-----|
-3-3-3-3-3-3-3-3-----|
-3-3-3-3-3-3-3-3-----|

-6-6-6-6-6-6-6-6----|
--------------------|
--------------------|
-8-8-8-8-8-8-8-8----| X2
-5-5-5-5-5-5-5-5----|
-5-5-5-5-5-5-5-5----|

Al final repite el punteo d A, B y C dos veces.

This is a great song!!!
            
Hard to play? Try these video lessons and learn fast. | Correct




comments powered by Disqus
↑ Back to top | Tablatures and chords are parodies/interpretations of the original songs. You may use it for private study, scholarship, research or language learning purposes only