» » »

Berri Txarrak, Bueltatzen Tabs (ver.1)

Artists:  A B C D E F G H I J K L M N O P Q R S T U V W X Y Z # 

Bueltatzen Tabs (ver.1)

Berri Txarrak Tabs
 Rating:
3.4/5 (5 votes)
Bueltatzen lessons Tabs too difficult? Try these video lessons and learn fast
                1.- intro:  x3

E-|------------------------------------|
B-|-3/4-4-4--3/4-4-4--3/4-4-4--3-4-6-6-|
G-|-2/3-3-3--2/3-3-3--2/3-3-3--2-3-5-5-|
D-|------------------------------------|
A-|------------------------------------|
E-|------------------------------------|


2.-

E-|-----------------------------------|
B-|-----------------------------------|
G-|-----------2--4-4-4----------------|
D-|-2--4-4-4--2--4-4-4--2----7-7--6-6-|
A-|-2--4-4-4--0--2-2-2--2----7-7--6-6-|
E-|-0--2-2-2-----2-2-2--0----5-5--4-4-|


E-|----------------------|
B-|----------------------|
G-|-------0-2-0----------|
D-|-0-2-4-------4-0------|
A-|----------------------|
E-|----------------------|


3.- Mundua ikusi nahi dut...


E-|---------------------------|
B-|---------------------------|
G-|---------------------------|
D-|------4--------------------|
A-|-0----2----4----7------2---|
E-|-0---------2----5----0---2-|


E-|------------------------------|
B-|------------------------------|
G-|------------------------------|
D-|------------------------------|
A-|-2--------------2-2-2-2-2-2-2-|
E-|-0--0-0-0-0-0-0---------------|


   -----------------------------|
   -----------------------------|
   -----------------------------|
   -----------------------------|
   -4-------------7-7-7-7-6-6-6-|
   -2-2-2-2-2-2-2-5-5-5-5-4-4-4-|


E-|------------------------------|
B-|------------------------------|
G-|------------------------------|
D-|------------------------------|
A-|-2--------------2-2-2-2-2-2-2-|
E-|-0--0-0-0-0-0-0---------------|


   ----------------------------|
   ----------------------------|
   ----------------------------|
   ----------------------------|
   -4--4-4-4-4-4-4-4-----------|
   -2--2-2-2-2-2-2-2-----------|

4.- Chorus: x2

E-|--------------------|
B-|--------------------|
G-|-4------------------|
D-|-4-4--4-4--4--------|
A-|-2-2--2-2--4-4--4-4-|
E-|-2-2--2-2--2-2--2-2-|

   ----------------------------------|
   ----------------------------------|
   -6---------8----------------------|
   -6-6--6-6--8-8--8-8---------------|
   -4-4--4-4--6-6--6-6---------------|
   -4-4--4-4--6-6--6-6---------------|


E-|--------------------|
B-|--------------------|
G-|-4---------6--------|
D-|-4-4--4-4--6-6--6-6-|
A-|-2-2--2-2--4-4--4-4-|
E-|-2-2--2-2--4-4--4-4-|

   ----------------------------------|
   ----------------------------------|
   -8---------9----------------------|
   -8-8--8-8--9-9--9-9---------------|
   -6-6--6-6--7-7--7-7---------------|
   -6-6--6-6--7-7--7-7---------------|



final part of chorus:

E-|--------------------|
B-|--------------------|
G-|-9---------9-9--9-9-|
D-|-9-9--9-9--x-x--x-x-|
A-|-7-7--7-7--7-7--7-7-|
E-|-7-7--7-7--7-7--7-7-|


   -----------9-9--9-9---------------|
   -9-9--9-9--x-x--x-x---------------|
   -x-x--x-x--x-x--x-x---------------|
   -x-x--x-x--x-x--x-x---------------|
   -7-7--7-7--7-7--7-7---------------|
   -7-7--7-7--7-7--7-7---------------|


replay all since second part
            
Submit corrections

comments powered by Disqus
↑ Back to top | Berri Txarrak Tabs for Bueltatzen. Lyrics for acoustic guitar and electric guitar. Tablatures and chords are parodies/interpretations of the original songs. You may use it for private study, scholarship, research or language learning purposes only