>
 >
Songbird

Songbird Guitar Tabs

Bernard Fanning - Songbird chords, tabs, tablatures, lyrics

Guitar lessons | Add/correct | Request | Top 50 tabs Artists:  A B C D E F G H I J K L M N O P Q R S T U V W X Y Z 0-9

Songbird Guitar Tabs – Bernard Fanning

CD, Sheet music, Poster

Do you like Songbird? Share with your friends now
Bass TabsChordsChords v2Chords v3TabsUkulele
SONGBIRD, Bernard Fanning     page 1   Use capo at 2nd fret
:Fret64@shedwav
e |-----2-2------2-2----4-4-2-4-4-4----2-2-----2-2-------5-5----|
B |-----2-2------2-2----5-5-5-5-5-5----3-3-----3-3-------5-5----|
G |:------------------------------------------------------------|
D |:---------2h4------2--------------------2h4------------------|
A |----------------------------------5----------------X---------|
E |---2-----------------------------------------------5---------|


e |--5-5-5-5---|
B |--5-5-5-5---|
G |--2-2-2-2---|
D |--2-2-2-2---|
A |--X-X-X-X---|
E |--5-5-5-5---|


e |-----4-4-----4-4------------------:|
B |-----5-5-4-5-5-5----3-3-----3-3---:|
G |--------------------2-2-----2-2---:|
D |------------------------2h4-------:|
A |--4---------------5---------------:|
E |----------------------------------:|

e |-----4-4-----4-4------------------:|
B |-----5-5-4-5-5-5----3-3-----3-3---:|
G |--------------------2-2-----2-2---:|
D |------------------------2h4-------:|
A |--4---------------5---------------:|
E |----------------------------------:|


e |-----2-2------2-2----4-4-2-4-4-4----2-2-----2-2-------5-5----|
B |-----2-2------2-2----5-5-5-5-5-5----3-3-----3-3-------5-5----|
G |:------------------------------------------------------------|
D |:---------2h4------2--------------------2h4------------------|
A |----------------------------------5----------------X---------|
E |---2-----------------------------------------------5---------|


e |--5-5-5-5---|
B |--5-5-5-5---|
G |--2-2-2-2---|
D |--2-2-2-2---|
A |--X-X-X-X---|
E |--5-5-5-5---|


e |-----4-4-----4-4------------------:|
B |-----5-5-4-5-5-5----3-3-----3-3---:|
G |--------------------2-2-----2-2---:|
D |------------------------2h4-------:|
A |--4---------------5---------------:|
E |----------------------------------:|


e |-----4-4-----4-4------------------:|
B |-----5-5-4-5-5-5----3-3-----3-3---:|
G |--------------------2-2-----2-2---:|
D |------------------------2h4-------:|
A |--4---------------5---------------:|
E |----------------------------------:|


 
e |-----2-2------2-2----4-4-2-4-4-4----2-2-----2-2-------5-5----|
B |-----2-2------2-2----5-5-5-5-5-5----3-3-----3-3-------5-5----|
G |:------------------------------------------------------------|
D |:---------2h4------2--------------------2h4------------------|
A |----------------------------------5----------------X---------|
E |---2-----------------------------------------------5---------|


e |--5-5-5-5---|
B |--5-5-5-5---|
G |--2-2-2-2---|
D |--2-2-2-2---|
A |--X-X-X-X---|
E |--5-5-5-5---|


e |-----4-4-----4-4------------------:|
B |-----5-5-4-5-5-5----3-3-----3-3---:|
G |--------------------2-2-----2-2---:|
D |------------------------2h4-------:|
A |--4---------------5---------------:|
E |----------------------------------:|


      

e |----4-4-----4-4----------------------------------2--2--2-2--|
B |----5-5-4-5-5-5---3-3-----3-3-----3-3-----3-3----3--3--3-3--|
G |------------------2-2-----2-2-----2-2-----2-2----4--4--4-4--|
D |----------------------2h4-----2h4-----2h4--------4--4--4-4--|
A |--4-------------5--------------------------------2--2--2-2--|
E |-------------------------------------------------X--X--X-X--|
###############################################################################
###############################################################################
e |--2-2--4--4--4-4-4-4--2--2--2-2-2-2--5--5--5-5-5-5----------|
B |--3-3--5--5--5-5-5-5--3--3--3-3-3-3--5--5--5-5-5-5----------|
G |--4-4--6--6--6-6-6-6--2--2--2-2-2-2--2--2--2-2-2-2----------|
D |--4-4--6--6--6-6-6-6--4--4--4-4-4-4--2--2--2-2-2-2----------|
A |--2-2--4--4--4-4-4-4--5--5--5-5-5-5--X--X--X-X-X-X----------|
E |--X-X--X--X--X-X-X-X--X--X--X-X-X-X--5--5--5-5-5-5----------|


 

e |--2--2--2-2-------------------------------------------------|
B |--3--3--3-3-------------------------------------------------|
G |--4--4--4-4-------------------------------------------------|
D |--4--4--4-4-------------------------------------------------|
A |--2--2--2-2-------------------------------------------------|
E |--x--x--x-x-------------------------------------------------|

   


e |--2-2--4--4--4-4-4-4--2--2--2-2-2-2--5--5--5-5-5-5----------|
B |--3-3--5--5--5-5-5-5--3--3--3-3-3-3--5--5--5-5-5-5----------|
G |--4-4--6--6--6-6-6-6--2--2--2-2-2-2--2--2--2-2-2-2----------|
D |--4-4--6--6--6-6-6-6--4--4--4-4-4-4--2--2--2-2-2-2----------|
A |--2-2--4--4--4-4-4-4--5--5--5-5-5-5--X--X--X-X-X-X----------|
E |--X-X--X--X--X-X-X-X--X--X--X-X-X-X--5--5--5-5-5-5----------|




violin\guitar  convert.


e |------------------------------/7p5/7/9-7-5/14-12------------|
B |--5-5-5--5-5-5-5/7-7p6p5-5h7p5------------------/14-12-10---|
G |------------------------------------------------------------|
D |------------------------------------------------------------|
A |------------------------------------------------------------|
E |------------------------------------------------------------|


e |------------------------------------------------------------|
B |--12/14-12-10-12/14-12-10/12~-------------------------------|
G |------------------------------------------------------------|
D |------------------------------------------------------------|
A |------------------------------------------------------------|
E |------------------------------------------------------------|

e |--14-16-17\--17\--12-14-16/17-19--17\14-12-------------------|
B |-------------------------------------------14-12-10-12/14-12\|
G |-------------------------------------------------------------|
D |-------------------------------------------------------------|
A |-------------------------------------------------------------|
E |-------------------------------------------------------------|

e |------------------------------------------------------------|
B |--10/12~----------------------------------------------------|
G |------------------------------------------------------------|
D |------------------------------------------------------------|
A |------------------------------------------------------------|
E |------------------------------------------------------------|


_________________________________________________________________________________________

CAPO AT 2nd FRET

Tuning Info
_____________________
e as 
B as 
G as 
D as 
A as 
E as 
_____________________

Used Tab Symbols
_____________________
 h  = Hammer On
 p  = Pull Off
 ~  = Sustain
 v  = Vibrato
 w  = Wide Vibrato
 b  = Bend Up
 hb = Bend Halfway
 /  = Slide Up
 \  = Slide Down
 *  = Trill
 x  = Muted Note
 H  = Harmonic
 t  = Right Hand Tap
 :  = Let Ring
_____________________

Fret64@shedwav
###############################################################################
###############################################################################


###############################################################################
###############################################################################





Comments


Popular Bernard Fanning tabs & chords
Songbird Bass Tabs
Songbird 2 Chords
Watch Over Me 2 Chords
Wish You Well Chords
Wish You Well 1 Chords
Wish You Well 3 Chords
Long Way Home Tabs
Thrill Is Gone Tabs
Strangest Thing Ukulele
Thrill Is Gone Ukulele


Song lyrics



↑ Back to top | Tablatures and chords are parodies/interpretations of the original songs. You may use it for private study, scholarship, research or language learning purposes only
© 2014 AZChords.com Contact us | Privacy policy | DMCA | Add/correct tabs | Request tabs | Top 50 tabs