» » »

Wicked Way Tabs (ver.2)

Artists:  A B C D E F G H I J K L M N O P Q R S T U V W X Y Z # 

Wicked Way Tabs (ver.2)

Ben Taylor
Rating:
5/5 (1 vote)

Hard to play? Try these video lessons and learn fast.
                (Intro)
-------------------------------------------------------------------------------
                             Wicked Way - Ben Taylor
-------------------------------------------------------------------------------

Tuning: Capo on 1 (all notes relative to capo)
 
                  A                 A/G#                 F#m             A/G#
e|-------0-----2--0-----------0-----2--0-----------0-----2--0---------0-----2--0--|
B|--------------------------------------------------------------------------------|
G|----2-----2--------------2-----2--------------2-----2------------2-----2--------|
D|--------------------------------------------------------------------------------|
A|-0------------------------------------------------------------------------------|
E|--------------------4-------------------2--------------------4------------------|



Alright i know its not much but its a start...ill put the rest up once i finish it up


| /  slide up
| \  slide down
| h  hammer-on
| p  pull-off
| ~  vibrato
| +  harmonic
| x  Mute note
===============================================================================
            
Hard to play? Try these video lessons and learn fast. | Correct




comments powered by Disqus
↑ Back to top | Tablatures and chords are parodies/interpretations of the original songs. You may use it for private study, scholarship, research or language learning purposes only