>
 >
Take Five

Take Five Guitar Tabs

Benson George - Take Five chords, tabs, tablatures, lyrics

Guitar lessons | Add/correct | Request | Top 50 tabs Artists:  A B C D E F G H I J K L M N O P Q R S T U V W X Y Z 0-9

Take Five Guitar Tabs – Benson George

CD, Sheet music, Poster

Do you like Take Five? Share with your friends now
Tabs
PROPS GO TO: The Analyst

George Benson

(Remember its in 5/4)

Chords for first part of tune:

||: Ebm7(9)       Bb7#9(b13)     | Ebm7(9)     Ab7     :||
   /    /    /    /      /         /   /   /    /   /

Diagrams:

Ebm7(9):                   Bb7#9(b13):                     Ab7:

E---6                       E---9                           E--4
B---6                       B---7                           B--4
G---6                       G---7                           G--5
D---4                       D---6                           D--4
A--(6)                      A---X                           A--X
E---X                       E---X                           E--X


Tune at this point goes:

E----------------------------------------------------------------------------------------
B---------7--9--10--11--10--9---7----------------6h7p6-----------------------------------
G-----8---------------------------------6---8------------8--6--8---8p6------6------------
D--8-------------------------------8------------------------------------8p6----8---------
A----------------------------------------------------------------------------------------
E----------------------------------------------------------------------------------------

E----------------------------------------------------------------------------------------
B----------7--9--10--11--10--9--7--------------9p7--------7------------------------------
G------8--------------------------------6--8--------8p6------8--8p6------6---------------
D--8--------------------------------8--------------------------------8p6----8-----------
A---------------------------------------------------------------------------------------
E----------------------------------------------------------------------------------------

(He varies the trills throughout).

Chords for second part of tune:

|Abm7            (Am7)   |Bbm7       Ebm7   |Abm7     Db7   |Gbmaj7     Gdim7   |
 /   /   /   /    /       /   /   /   /  /   /  /  /  /  /   / / /  /     /

|Abm7              (Am7)   |Bbm7     Ebm7      |Abm7         |Fm7b5      Bb7    |
 /   /   /   /      /      /  /  /   /  /                     /  /  /    /  /



Diagrams:


Abm7: (Am7 and Bbm7 use the same shape, just one and two frets up respectively)

E--X
B--4
G--4
D--4
A--X
E--4


Ebm7:              Db7:             Gbmaj7:       Gdim7:           Fm7b5:       Bb7:

E6                EX              EX            EX             EX          E--X
B7                B2              B2            B2             B8          B--6
G6                G4              G3            G3             G7          G--7
DX                D3              D3            D2             D8          D--6
A6                A4              AX            AX             A7          A--X
EX                EX              E2            E3             EX          E--6


Second part of tune:
(/=slide)

[A]

E--10/11--14--11--------------------------13---------------------------11----------------
B-----------------12------11--12--13--14-----14--11------9--10--11--12----12--9----------
G---------------------13-----------------------------11----------------------------------
D----------------------------------------------------------------------------------------
A----------------------------------------------------------------------------------------
E----------------------------------------------------------------------------------------



[B]

E-------------------------------------------------------------------------------
B--------9101110111214----14131415-------------------------------------
G1011-------------------------------------------------------------------------
D------------------------------------------------------------------------------
A------------------------------------------------------------------------------
E-------------------------------------------------------------------------------

Then repeat [A] before going to [C]:



E-----------9-------------
B-------9-----12---11--
G--10--------------------
D-------------------------
A--------------------------
E--------------------------

Have fun working out the solos!





Comments


Popular Benson George tabs & chords
Give Me The Night Bass Tabs
Give Me The Night Chords
Nothings Gonna Change My Love For You Chords
This Masquerade Chords
Affirmation Tabs
This Masquerade Tabs


Song lyrics



↑ Back to top | Tablatures and chords are parodies/interpretations of the original songs. You may use it for private study, scholarship, research or language learning purposes only
© 2014 AZChords.com Contact us | Privacy policy | DMCA | Add/correct tabs | Request tabs | Top 50 tabs