» » »

Benson George, Give Me The Night Bass tabs (ver.1)

Artists:  A B C D E F G H I J K L M N O P Q R S T U V W X Y Z # 

Give Me The Night Bass tabs (ver.1)

Benson George Tabs
Rating:
0/5 (0 votes)
Give Me The Night lessons Tabs too difficult? Try these video lessons and learn fast
                benson_george/give_me_the_night.btab

Basstab by Jan Bjorklund, Finland; 
You are welcome to request for basstabs!
Bienvenidos a pedirme transcripciones para el bajo!

TablEdited by Jan Bjorklund for Joe
Tuning : B E A D G 	Time Signature: 4/4

 |       |       |       |        |       |       |       |        
|--------------------------------|--------------------------------|
|3-----1-3-----------------------|----------------------------1h2-|
|------------1---------------1h2-|3-----1-3---4-4-----------------|
|--------------------------------|--------------------------------|
|--------------------------------|--------------------------------|

 |       |       |       |        |       |       |       |        
|--------------------------------|--------------------------------|
|3-----1-3-----------------------|--------------------------------|
|------------1---------------1h2-|3-----1-3---4-------1-----------|
|--------------------------------|----------------4---------------|
|--------------------------------|------------------------4-------|

 |       |       |       |        |       |       |       |        
|--------------------------------|--------------------------------|
|3-----1-3-----------------------|----------------------------1h2-|
|------------1---------------1h2-|3-----1-3---4-4-----------------|
|--------------------------------|--------------------------------|
|--------------------------------|--------------------------------|

 |       |       |       |        |       |       |       |        
|------1-------------------------|--------------------------------|
|3-------3-----------------------|--------------------------------|
|------------1---------------1h2-|3-----1-3---4-------1-----------|
|--------------------------------|----------------4---------------|
|--------------------------------|------------------------4-------|

 |       |       |       |        |       |       |       |        
|--------------------------------|--------------------------------|
|3-----1-3-----------------------|----------------------------1h2-|
|------------1---------------1h2-|3-----1-3---4-4-----------------|
|--------------------------------|--------------------------------|
|--------------------------------|--------------------------------|

 |       |       |       |        |       |       |       |        
|--------------------------------|--------------------------------|
|3-----1-3-----------------------|--------------------------------|
|------------1---------------1h2-|3-----1-3---4-------1-----------|
|--------------------------------|----------------4---------------|
|--------------------------------|------------------------4-------|

 |       |       |       |        |       |       |       |        
|--------------------------------|--------------------------------|
|3-----1-3-----------------------|----------------------------1h2-|
|------------1---------------1h2-|3-----1-3---4-4-----------------|
|--------------------------------|--------------------------------|
|--------------------------------|--------------------------------|

 |       |       |       |        |       |       |       |        
|------1-------------------------|--------------------------------|
|3-------3-----------------------|--------------------------------|
|------------1---------------1h2-|3-----1-3---4-------1-----------|
|--------------------------------|----------------4---------------|
|--------------------------------|------------------------4-------|

 |       |       |       |        |       |       |       |        
|--------------------------------|--------------------------------|
|------------------------3---2---|1---------------------------1h2-|
|1-----------1-1-1-----1---------|--------------------------------|
|--------------------------------|--------------------------------|
|--------------------------------|------------4-4-4---------------|

 |       |       |       |        |       |       |       |        
|--------------------------------|--------------------------------|
|3-----1-3-----------------------|----------------------------1h2-|
|------------1---------------1h2-|3-----1-3---4-4-----------------|
|--------------------------------|--------------------------------|
|--------------------------------|--------------------------------|

 |       |       |       |        |       |       |       |        
|------1-------------------------|--------------------------------|
|3-------3-----------------------|--------------------------------|
|------------1---------------1h2-|3-----1-3---4-------1-----------|
|--------------------------------|----------------4---------------|
|--------------------------------|------------------------4-------|

 |       |       |       |        |       |       |       |        
|--------------------------------|--------------------------------|
|3-----1-3-----------------------|----------------------------1h2-|
|------------1---------------1h2-|3-----1-3---4-4-----------------|
|--------------------------------|--------------------------------|
|--------------------------------|--------------------------------|

 |       |       |       |        |       |       |       |        
|--------------------------------|--------------------------------|
|3-----1-3-----------------------|--------------------------------|
|------------1---------------1h2-|3-----1-3---4-------1-----------|
|--------------------------------|----------------4---------------|
|--------------------------------|------------------------4-------|

 |       |       |       |        |       |       |       |        
|--------------------------------|--------------------------------|
|3-----1-3-----------------------|----------------------------1h2-|
|------------1---------------1h2-|3-----1-3---4-4-----------------|
|--------------------------------|--------------------------------|
|--------------------------------|--------------------------------|

 |       |       |       |        |       |       |       |        
|------1-------------------------|--------------------------------|
|3-3-----3-----------------------|--------------------------------|
|------------1---------------1h2-|3-----1-3---4-------1-----------|
|--------------------------------|----------------4---------------|
|--------------------------------|------------------------4-------|

 |       |       |       |        |       |       |       |        
|------------3p1-----------------|--------------------8-----------|
|------------------3-------------|--------------------------------|
|1---------------------4---------|------------6-6-------------6h7-|
|------------------------6-------|--------------------------------|
|----------------------------6---|4-------------------------------|

 |       |       |       |        |       |       |       |        
|--------------------------------|--------------------------------|
|3-----1-3-----------------------|----------------------------1h2-|
|------------1---------------1h2-|3-----1-3---4-4-----------------|
|--------------------------------|--------------------------------|
|--------------------------------|--------------------------------|

 |       |       |       |        |       |       |       |        
|--------------------------------|--------------------------------|
|3-----1-3-----------------------|--------------------------------|
|------------1---------------1h2-|3-----1-3---4-------1-----------|
|--1-----------------------------|----------------4---------------|
|--------------------------------|------------------------4-------|

 |       |       |       |        |       |       |       |        
|--------------------------------|--------------------6-----------|
|------4-6-----------------------|----------------------6---------|
|--------------------9-----------|----6-4-6---4-----------4-------|
|4-----------------------2-------|--------------------------------|
|------------7---7---------------|4-------------------------------|

 |       |       |       |        |       |       |       |        
|--------1-----------------------|------------------4h6-----------|
|--------------------4-----------|--------------------------------|
|--------------------------------|6-----5-6---4-----------4-------|
|4-----2-----2-----------2-------|--------------------------------|
|--------------------------------|--------------------------------|

 |       |       |       |        |       |       |       |        
|--------------------------------|--------------------6-----------|
|------0-------------4-----------|--------------------------------|
|--------------------------------|6-----5-6---4-----------4-------|
|4-------4---2-----------2-------|--------------------------------|
|--------------------------------|--------------------------------|

 |       |       |       |        |       |       |       |        
|--------------------------------|--------------------------------|
|------0-------------4-----------|--------------------------------|
|--------------------------------|--------------------------------|
|4-------4---2-----------2-------|--------------------------------|
|--------------------------------|5-------------------------------|

 |       |       |       |        |       |       |       |        
|--------------------------------|--------------------------------|
|--------------------------------|--------------------------------|
|4-------------------------------|--------------------------------|
|--------------------------------|--------------------------------|
|--------------------------------|5-------------------------------|

 |       |       |       |        |       |       |       |        
|--------------------------------|--------------------------------|
|--------------------------------|3-----1-3-----------------------|
|----------------------------6-7-|------------1---------------1h2-|
|--------------------------------|--------------------------------|
|4-------------------------------|--------------------------------|

 |       |       |       |        
|--------------------------------|
|----------------------------1h2-|
|3-----1-3---4-4-----------------|
|--------------------------------|
|--------------------------------|
            

comments powered by Disqus
↑ Back to top | Benson George Bass for Give Me The Night. Lyrics for acoustic guitar and electric guitar. Tablatures and chords are parodies/interpretations of the original songs. You may use it for private study, scholarship, research or language learning purposes only