>
 >
Old Pine

Old Pine Guitar Tabs

Ben Howard - Old Pine chords, tabs, tablatures, lyrics

Guitar lessons | Add/correct | Request | Top 50 tabs Artists:  A B C D E F G H I J K L M N O P Q R S T U V W X Y Z 0-9

Old Pine Guitar Tabs – Ben Howard

CD, Sheet music, Poster

Do you like Old Pine? Share with your friends now
ChordsTabsTabs v2Tabs v3Tabs v4Tabs v5
-------------------------------------------------------------------------------
-------------------------------------------------------------------------------

Didn't know about Ben Howard before this song, but a mate asked me to tab it
out a while ago and I thought it was pretty good. Had to relearn the original
version as I've managed to warp the song quite a bit (n.b. it's more fun to
play on the 3rd capo), but I think everything's here. The additional string
instruments have been included in parts (i.e. end of chorus 1 and bits in the
bridge) so if it doesn't sound right, just play the chord bits.

Tuning: Standard, Capo 5th fret

Verse & intro
e||-----------------|--------------------|-------------------|
B||o----------------|--------------------|-------------------|
G||----------0----0-|--------------------|-----------0----0--|
D||--2p0------------|--2p0------0----0---|--2p0--------------|
A||o-----3-3----3---|------3-3----3----3-|------3-3-----3----|
E||-----------------|--------------------|-------------------|

                                       X7
e|-----------------|-------------------||
B|---------1----1--|----------1----1--o||
G|----0---------0--|------0--------0---||
D|--2---2----2--2--|----0---0---0--0---||
A|-----------------|--2------------2--o||
E|-----------------|-------------------||

Chorus 1
                  X3
e||-------|-------||-------||
B||o--1---|--1---o||-------||
G||---0---|--0----||-------||
D||---2---|--0----||-------||
A||o--3---|--2---o||--(5)~-||
E||-------|-------||-------||

Then back to the verse for however many bars it takes.
And then onto chorus 2

Chorus 2 - Where there's percussion, the ghost notes probably aren't there,
but I like them around.
                  X2
e||-------|-------||---||----------------|----------------||------|-----------|
B||o--1---|--1---o||---||o-----1------1--|-----1------1--o||---1--|--1--------|
G||---0---|--0----||---||------0------0--|-----0------0---||---0--|--0--------|
D||---2---|--0----||---||------2------2--|-----0------0---||---2--|--0-(strum)|
A||o--3---|--2---o||---||o-(3)-3--(3)-3--|-(2)-2--(2)-2--o||---3--|--2--------|
E||-------|-------||---||----------------|----------------||------|-----------|

Bridge                                                                       x6
e||-----------------------|------------------|-------------------|-----------||
B||o--0h1----0h1----------|--0h1----3-3--1p0-|--0h1-----0h1------|----------o||
G||---0------0-------0--0-|--0---0--0----0---|--0-------0------0-|-2--2--0---||
D||---2------2-------2--2-|--2---2--2----2---|--0-------0------0-|-0--0--0---||
A||o--3--(3)-3---(3)-3--3-|--3---3--3----3---|--2---(2)-2--(2)-2-|-2--2--2--o||
E||-----------------------|------------------|-------------------|-----------||

e|--------------|
B|--1-----------|
G|--0-----------|
D|--0-(strum)---|
A|--2-----------|
E|--------------| And then go back to the verse for the outro. And end on C





Comments


Popular Ben Howard tabs & chords
Call Me Maybe 1 Chords
Black Flies 1 Tabs
Everything Tabs
Gracious Intro Tabs
Keep Your Head Up 1 Tabs
London Tabs
Only Love 1 Tabs
Only Love 3 Tabs
Soldiers 1 Tabs
The Wolves Tabs


Song lyrics



↑ Back to top | Tablatures and chords are parodies/interpretations of the original songs. You may use it for private study, scholarship, research or language learning purposes only
© 2014 AZChords.com Contact us | Privacy policy | DMCA | Add/correct tabs | Request tabs | Top 50 tabs