>
 >
Further Away

Further Away Guitar Tabs

Ben Howard - Further Away chords, tabs, tablatures, lyrics

Guitar lessons | Add/correct | Request | Top 50 tabs Artists:  A B C D E F G H I J K L M N O P Q R S T U V W X Y Z 0-9

Further Away Guitar Tabs – Ben Howard

CD, Sheet music, Poster

Do you like Further Away? Share with your friends now
Tabs
-------------------------------------------------------------------------------
-------------------------------------------------------------------------------

Tuning: full step down (sounds fine in standard, but needs to be a step down to be 
in the original key)


**please note**

If you want to play this song and don'd mind re-tuning a lot go and learn the
other tab that's up, it details the way Ben plays the song.

if anyone wants a more detailed tab (such as fingerpicking patterns for the chorus) just comment.


intro and verse part 1: (me playing this part: 
https://soundcloud.com/wicker101/further-away-main-riff)

e|---------------------------|
B|-------3-------------------|
G|------2--------------------|
D|-----0---------------------|
A|---------------------------|
E|--3------------------------|

e|---------------------------|--------------------------|
B|------------3-----3--3-----|---------3-----------3----|
G|-----------2------2--2-----|---------0-----2-----0----|
D|--x-------0-------0--x--0--|--0h2h4--x--4-----4--2p0--|
A|--x------------------x-----|---------x-----------x----|
E|--x--3-3-------3-----x-----|---------x-----------x----|


e|-------------------|------------------------|
B|-----3-----3--3----|-------3-----------3----|
G|-----0-----0--0----|-------0-----2-----0----|
D|--------------x----|--2h4--x--4-----4--2p0--|
A|--2-----2-----x----|-------x-----------x----|
E|--------------x----|-------x-----------x----|

e|-------------------|-------------------------|
B|-----3-----3--3----|-------3--------------3--|
G|-----2-----2--2----|-------0--2--2h4p2p0--0--|
D|-----------0--x----|0h2h4--x--------------x--|
A|--------------x----|-------x--------------x--|
E|--3-----3-----x----|-------x--------------x--|

e|-------------------|-------------------------|
B|-----3-----3--3----|------3-----------3------|
G|-----0-----0--0----|------0-----2-----0------|
D|--------------x----|-2h4--x--4-----4--2p0----|
A|--2-----2-----x----|------x-----------x------|
E|--------------x----|------x-----------x------|


e|---------------------|-----------------------|
B|-----3------3-----3--|-----3------3----3-----|
G|-----2------2-----2--|-----2------2----2-----|
D|-----0------0-----0--|-----0------0----0-----|
A|---------------------|-----------------------|
E|--3-------3-----3----|--3-------3----3-------|

Intro and verse Part 2:
e|-----------------------------------------|
B|------8----------8--------0-----------0--|
G|-----7--------7--7-----6--6--------4--4--|
D|----0-------0----0-----0--0--0-----0--0--|
A|--5------4-------x--------x-----------x--|
E|-----------------x--7-----x-----5-----x--|

e|----------------3--------|    |---|
B|----------0-----------0--|    |---|
G|-----2h4--4-----------4--| x3 |-4-|
D|----------x--------0--x--|    |-0-|
A|----------x-----------x--|    |---|
E|--3-------x--3--------x--|    |---|
Chorus chords:

e|--x--x--x---5--5------------------------------------------------------------------|
B|--x--x--x---x--x------------------------------------------------------------------|
G|--7--9--11--7--7------------------------------------------------------------------|
D|--0--0--0---0--0------------------------------------------------------------------|
A|--5--7--9---5--4------------------------------------------------------------------|
E|--x--x--x-------------------------------------------------------------------------|



************************************

| /   slide up
| \   slide down
| h   hammer-on
| p   pull-off
| ~   vibrato
| +   harmonic
| x   Mute note
| b   Bend
| pb  Pre-bend
| br  Bend release
| pbr Pre-bend release
| brb Bend release bend

************************************





Comments


Popular Ben Howard tabs & chords
Depth Over Distance Chords
Keep Your Head Up Chords
Keep Your Head Up 1 Chords
Only Love 1 Chords
Only Love 2 Chords
Bones Tabs
Diamonds 1 Tabs
Everything 2 Tabs
Only Love Tabs
Soldiers 1 Tabs


Song lyrics



↑ Back to top | Tablatures and chords are parodies/interpretations of the original songs. You may use it for private study, scholarship, research or language learning purposes only
© 2014 AZChords.com Contact us | Privacy policy | DMCA | Add/correct tabs | Request tabs | Top 50 tabs