>
 >
In The Colors

In The Colors Guitar Tabs

Ben Harper - In The Colors chords, tabs, tablatures, lyrics

Guitar lessons | Add/correct | Request | Top 50 tabs Artists:  A B C D E F G H I J K L M N O P Q R S T U V W X Y Z 0-9

In The Colors Guitar Tabs – Ben Harper

CD, Sheet music, Poster

Do you like In The Colors? Share with your friends now
ChordsTabsUkulele
-------------------------------------------------------------------------------
-------------------------------------------------------------------------------

Tuning:standard

e|------------7------------------------5----------------------7-----------------------3------|
B|------------7------------------------5----------------------7-----------------------3------|
G|------------7---------4-4-/4---------6----------------------7-----------------------4------|
D|------------7----4--7-------7-4------7-------4-4-/4---------9-----7-9-9-7/9-7-------5------|
A|-----5--5---5---------------------7--7---4-7--------7-4-----9---9---------------9---5------|
E|-5-7---------------------------------5-------------------7--7---------------------3-3------|
                     (---------------------------MAIN CHORD SEQUENCE---------------------------

e|-----------------------7--------------------5---------------------7--------------------3-------|
B|-----------------------7--------------------5---------------------7--------------------3-------|
G|-----------------------7-------4-4-4--------6---------------------7--------------------4-------|
D|------2-2-2------------7---4-7-------7-4----7--------4-4-/4-------9----7-9-9-7/9-7-----5-------|
A|--2-5-------5-0h2---5--5-----------------7--7----4-7-------7-4----9--9-------------9---5-------|
E|--------------------------------------------5------------------7--7------------------3-3-------|

-------------------)  "Dance with me"
e|--------------------7-7-7-7---5-5--4--3----7--------------------7---------------------5-|
B|--------------------7-7-7-7---5-5--4--3----7--------------------7---------------------5-|
G|--------------------7-7-7-7---6-6--5--4----7---4----------------7------4-4-4----------6-|
D|-------2-2-2--------7-7-7-7---7-7--6--5--7-7-----7-4------------7--4-7--------7-4-----7-|
A|-- 2-5-------5-2--5-5-5-5-5---7-7--6--5--5-5---------7-----5-5--5------------------7--7-|
E|------------------------------5-5--4--3----------------5-7----------------------------5-|
                                                         (0:48)
e|-------------------7------------------3-----------------7-7-7-7--5-5-4-3--------------|
B|-------------------7------------------3-----------------7-7-7-7--5-5-4-3--------------|
G|-------------------7------------------4-----------------7-7-7-7--6-6-5-4--------------|
D|------4-4-4--------9----7-9-9-9-7-----5------2-2-2------7-7-7-7--7-7-6-5--------------|
A|--4-7-------7-4----9--9-----------9---5--2-5-------5-2--5-5-5-5--7-7-6-5--------------|
E|----------------7--7----------------3-3--------------------------5-5-4-3--------------|
                                      ( PLAY 4X's ea.)
e|--7-7-7--5-5-4-3--7------------------7--9--3-5-7--9--3--5-5--3-3--2-2--1-1--0---------|
B|--7-7-7--5-5-4-3--7------------------8--10-3-5-8-10--3--5-5--3-3--2-2--1-1--1---------|
G|--7-7-7--6-6-5-4--7---/4-------------9--11-4-6-9-11--4--6-6--4-4--2-2--1-1--2---------|
D|--7-7-7--7-7-6-5--7------7-4---------9--11-5-7-9-11--5--7-7--5-5--4-4--3-3--3---------|
A|--5-5-5--7-7-6-5--5----------7---5-7-7--9--5-7-7--9--5--7-7--5-5--4-4--3-3--3---------|
E|---------5-5-4-3---------------7-----------3-5-------3--5-5--3-3--2-2--1-1------------|
                             (1:44)
e|-0---7-7--7--0--0--0---------7-----------------------------------------------------|
B|-1---7-7--7--1--1--1---------7---/10-10-10-8-7-5--/8-8-8-7-5-3---------------------|
G|-2---7-7--7--2--2--2---------7-----------------------------------------------------|
D|-3---7-7--7--3--3--3---------7---/10-10-10-8-7-5--/8-8-8-7-5-3---------------------|
A|-3---5-5--5--3--3--3-------5-5-----------------------------------------------------|
E|-----------------------5-7---------------------------------------------------------|
                                           (1:56)
e|----------------------------------------------7------------------5--------------------|
B|----------------------------------------------7------------------5--------------------|
G|--------7h9p7---7-9/12--12-12p11p9-11\9\7-7---7------4-4-4-------6--------------------|
D|--------------9-------------------------------7--4-7-------7-4---7------4-4-4---------|
A|----7-9-------------------------------------5-5----------------7-7--4-7-------7-4-----|
E|--7--------------------------------------------------------------5----------------7---|

e|-7------------------3-------------------7-7-7-7--5-5-4-3--7--------------------7--------|
B|-7------------------3-------------------7-7-7-7--5-5-4-3--7--------------------7--------|
G|-7------------------4-------------------7-7-7-7--6-6-5-4--7--4-----------------7--------|
D|-9----7-9-9-9-7-----5------2-2-2--------7-7-7-7--7-7-6-5--7----7-4-------------7--------|
A|-9--9-----------9---5--2-5-------5-2--5-5-5-5-5--7-7-6-5--5--------7-----5-5---5--------|
E|-7----------------3-3----------------------------5-5-4-3-------------5-7----------------|

e|------------------5------------------7------------------3-------------------7-------|
B|------------------5------------------7------------------3-------------------7-------|
G|------4-4-4-------6------------------7------------------4-------------------7-------|
D|--4-7-------7-4---7------4-4-4-------9----7-9-9-9-7-----5------2-2-2--------7-------|
A|----------------7-7--4-7-------7-4---9--9-----------9---5--2-5-------5-2--5-5-------|
E|------------------5----------------7-7----------------3-3---------------------------|

e|-7-7--5-5-4-3----7-7-7--5-5-4-3----7-7-7--5-5-4-3----------------------------------|
B|-7-7--5-5-4-3----7-7-7--5-5-4-3----7-7-7--5-5-4-3--7h8p7---------------------------|
G|-7-7--6-6-5-4----7-7-7--6-6-5-4----7-7-7--6-6-5-4--7-------------------------------|
D|-7-7--7-7-6-5--7-7-7-7--7-7-6-5--7-7-7-7--7-7-6-5--7-------------------------------|
A|-5-5--7-7-6-5--5-5-5-5--7-7-6-5--5-5-5-5--7-7-6-5--5-------------------------------|
E|------5-5-4-3-----------5-5-4-3-----------5-5-4-3----------------------------------|
************************************

| /   slide up
| \   slide down
| h   hammer-on
| p   pull-off
| ~   vibrato
| +   harmonic
| x   Mute note
| b   Bend
| pb  Pre-bend
| br  Bend release
| pbr Pre-bend release
| brb Bend release bend

************************************





Comments


Popular Ben Harper tabs & chords
With My Own Two Hands Chords
Another Lonely Day 1 Tabs
Forever Tabs
Ground On Down Tabs
Morning Yearning 3 Tabs
Steal My Kisses 3 Tabs
The Woman In You Intro Tabs
Gold To Me Ukulele
Happy Everafter In Your Eyes Ukulele
Waiting For You Ukulele


Song lyrics



↑ Back to top | Tablatures and chords are parodies/interpretations of the original songs. You may use it for private study, scholarship, research or language learning purposes only
© 2014 AZChords.com Contact us | Privacy policy | DMCA | Add/correct tabs | Request tabs | Top 50 tabs