» » »

Belle And Sebastian, For The Price Of A Cup Of Tea Tabs (ver.1)

Artists:  A B C D E F G H I J K L M N O P Q R S T U V W X Y Z # 

For The Price Of A Cup Of Tea Tabs (ver.1)

Belle And Sebastian Tabs
 Rating:
4/5 (4 votes)
For The Price Of A Cup Of Tea lessons Tabs too difficult? Try these video lessons and learn fast
1
                Belle and Sebastian
The Life Pursuit

Intro x 4
e|--8-8-8-8-6-6-x-8-x-8-x-8-6-6--10-10-10-10-8-8-x-10-x-10-x-10-8-8-|
B|--6-6-6-6-6-6-x-6-x-6-x-6-6-6--8--8--8--8--8-8-x-8--x-8--x-8--8-8-|
G|--7-7-7-7-7-7-x-7-x-7-x-7-7-7--8--8--8--8--8-8-x-8--x-8--x-8--8-8-|
D|--8-8-8-8-8-8-x-8-x-8-x-8-8-8--8--8--8--8--8-8-x-8--x-8--x-8--8-8-|
A|------------------------------------------------------------------|
E|------------------------------------------------------------------|

Verse

e|--8-8-8-8-6-6-x-8-x-8-x-8-6-6--10-10-10-10-8-8-x-10-x-10-x-10-8-8-|
B|--6-6-6-6-6-6-x-6-x-6-x-6-6-6--8--8--8--8--8-8-x-8--x-8--x-8--8-8-|
G|--7-7-7-7-7-7-x-7-x-7-x-7-7-7--8--8--8--8--8-8-x-8--x-8--x-8--8-8-|
D|--8-8-8-8-8-8-x-8-x-8-x-8-8-8--8--8--8--8--8-8-x-8--x-8--x-8--8-8-| x 3
A|------------------------------------------------------------------|
E|------------------------------------------------------------------|

e|-4-4-4-4-4-4-x-4-x-4-x-4-4-4---1-1-1-1-1-1-x-1-x-1-x-1-1-1--------|
B|-4-4-4-4-4-4-x-4-x-4-x-4-4-4---1-1-1-1-1-1-x-1-x-1-x-1-1-1--------|
G|-5-5-5-5-5-5-x-5-x-5-x-5-5-5---3-3-3-3-3-3-x-2-x-2-x-2-2-2--------|
D|-6-6-6-6-6-6-x-6-x-6-x-6-6-6---3-3-3-3-3-3-x-3-x-3-x-3-3-3--------|
A|------------------------------------------------------------------|
E|------------------------------------------------------------------|

Verse again

Chorus
e|--6-6-6-6-6-6-x-6-x-6-x-6-6-6--8--8--8--8--8-8-x-8--x-8--x-8--8-8-|
B|--6-6-6-6-6-6-x-6-x-6-x-6-6-6--8--8--8--8--8-8-x-8--x-8--x-8--8-8-|
G|--7-7-7-7-7-7-x-7-x-7-x-7-7-7--8--8--8--8--8-8-x-8--x-8--x-8--8-8-|
D|--8-8-8-8-8-8-x-8-x-8-x-8-8-8--8--8--8--8--8-8-x-8--x-8--x-8--8-8-| x2
A|------------------------------------------------------------------|
E|------------------------------------------------------------------|

e|10-10-10-10-10-10-x-10-x-10-x-10-10-10-8-8-8-8-8-8-x-8-x-8-x-8-8-8|
B|10-10-10-10-10-10-x-10-x-10-x-10-10-10-8-8-8-8-8-8-x-8-x-8-x-8-8-8|
G|10-10-10-10-10-10-x-10-x-10-x-10-10-10-8-8-8-8-8-8-x-8-x-8-x-8-8-8|
D|10-10-10-10-10-10-x-10-x-10-x-10-10-10-8-8-8-8-8-8-x-8-x-8-x-8-8-8|
A|------------------------------------------------------------------|
E|------------------------------------------------------------------|

e|10-10-10-10-10-10-x-10-x-10-x-10-10-10-|
B|10-10-10-10-10-10-x-10-x-10-x-10-10-10-|
G|10-10-10-10-10-10-x-10-x-10-x-10-10-10-|
D|10-10-10-10-10-10-x-10-x-10-x-10-10-10-|
A|---------------------------------------|
E|---------------------------------------|

e|10-10-10-10-10-10-x-10-x-10-x-10-10-10-|
B|10-10-10-10-10-10-x-10-x-10-x-10-10-10-|
G|11-11-11-11-11-11-x-11-x-11-x-11-11-11-|
D|12-12-12-12-12-12-x-12-x-12-x-12-12-12-|
A|---------------------------------------|
E|---------------------------------------|

Verse x 1

Intro riff x 2

Chorus again

Bridge
e|-10-10-10-10-10-10-x-10-x-10-x-10-10-10--|
B|-11-11-11-11-11-11-x-11-x-11-x-11-11-11--|
G|-12-12-12-12-12-12-x-12-x-12-x-12-12-12--|
D|-12-12-12-12-12-12-x-12-x-12-x-12-12-12--|
A|-----------------------------------------|
E|-----------------------------------------|

e|-10-10-10-10-10-10-x-10-x-10-x-10-10-10--|
B|-10-10-10-10-10-10-x-10-x-10-x-10-10-10--|
G|-11-11-11-11-11-11-x-11-x-11-x-11-11-11--|
D|-12-12-12-12-12-12-x-12-x-12-x-12-12-12--|
A|-----------------------------------------|
E|-----------------------------------------|

e|--6-6-6-6-6-6-x-6-x-6-x-6-6-6--8--8--8--8--8-8-x-8--x-8--x-8--8-8-|
B|--6-6-6-6-6-6-x-6-x-6-x-6-6-6--8--8--8--8--8-8-x-8--x-8--x-8--8-8-|
G|--7-7-7-7-7-7-x-7-x-7-x-7-7-7--8--8--8--8--8-8-x-8--x-8--x-8--8-8-|
D|--8-8-8-8-8-8-x-8-x-8-x-8-8-8--8--8--8--8--8-8-x-8--x-8--x-8--8-8-| 
A|------------------------------------------------------------------|
E|------------------------------------------------------------------|

e|6-6-6-6-6-6-x-6-x-6-x-6-6-6-10-10-10-10-10-10-x-10-x-10-x-10-10-10|
B|6-6-6-6-6-6-x-6-x-6-x-6-6-6-10-10-10-10-10-10-x-10-x-10-x-10-10-10|
G|7-7-7-7-7-7-x-7-x-7-x-7-7-7-10-10-10-10-10-10-x-10-x-10-x-10-10-10|
D|8-8-8-8-8-8-x-8-x-8-x-8-8-8-10-10-10-10-10-10-x-10-x-10-x-10-10-10|
A|------------------------------------------------------------------|
E|------------------------------------------------------------------|

then intro riff x 8 and end on Bb chord. 
Thats it i reckon. i cant be 100% sure, but its as close as i could get.
Hope you enjoy :)
            
Submit corrections

comments powered by Disqus
↑ Back to top | Belle And Sebastian Tabs for For The Price Of A Cup Of Tea. Lyrics for acoustic guitar and electric guitar. 1 Tablatures and chords are parodies/interpretations of the original songs. You may use it for private study, scholarship, research or language learning purposes only