>
 >
The End Ahead

The End Ahead Guitar Tabs

Bella Morte - The End Ahead chords, tabs, tablatures, lyrics

Guitar lessons | Add/correct | Request | Top 50 tabs Artists:  A B C D E F G H I J K L M N O P Q R S T U V W X Y Z 0-9

The End Ahead Guitar Tabs – Bella Morte

CD, Sheet music, Poster

Do you like The End Ahead? Share with your friends now
Tabs

			"The End Ahead"

			  Bella Morte
		   Bleed the Grey Skies Black



Tuning: Drop D (DADGBE)

Legend:  * = Palm Mute


Intro
0:10
|--------------------------------------------------|
|--------------------------------------------------|
|---------------------------5--5--5--5--8--8--8--8-|
|--3--3--3--3---6--6--6--6--5--5--5--5--8--8--8--8-|  
|--3--3--3--3---6--6--6--6--3--3--3--3--6--6--6--6-|
|--3--3--3--3---6--6--6--6-------------------------|


Verse
0:26
|--------------------------------------------------|
|--------------------------------------------------|
|--------------------------------------------------|
|--------------------------------------------------|
|--------------------------------------------------|
|--------------------------------------------------|

 
0:57
|--------------------------------------------------|
|--------------------------------------------------|
|--5-5--5--5---------------------------------------|
|--5-5--5--5------6-6--6--6------------------------|  
|--3-3--3--3------6-6--6--6---6--5--3--------------|
|-----------------6-6--6--6------------------------|
                                                      x2
|--------------------------------------------------|
|--------------------------------------------------|
|--5-5--5--5---------------------------------------|
|--5-5--5--5------6---------8----------------------|  
|--3-3--3--3------6---------8----------------------|
|-----------------6---------8----------------------|



Chorus
1:19
|--------------------------------------------------|
|--------------------------------------------------|
|---------------------------5--5--5--5--5--5--5--5-|
|--3--3--3--3---6--6--6--6--5--5--5--5--5--5--5--5-|  
|--3--3--3--3---6--6--6--6--3--3--3--3--3--3--3--3-|
|--3--3--3--3---6--6--6--6-------------------------|

|--------------------------------------------------|
|--------------------------------------------------|
|---------------------------5--5--5--5--8--8--8--8-|
|--3--3--3--3---6--6--6--6--5--5--5--5--8--8--8--8-|  
|--3--3--3--3---6--6--6--6--3--3--3--3--6--6--6--6-|
|--3--3--3--3---6--6--6--6-------------------------|


Verse 2
1:41
|--------------------------------------------------|
|--------------------------------------------------|
|--------------------------------------------------|
|--------------------------------------------------|
|--------------------------------------------------|
|--------------------------------------------------|


2:02
|--------------------------------------------------|
|--------------------------------------------------|
|--5-5--5--5---------------------------------------|
|--5-5--5--5------6-6--6--6------------------------|  
|--3-3--3--3------6-6--6--6---6--5--3--------------|
|-----------------6-6--6--6------------------------|
                                                       x2
|--------------------------------------------------|
|--------------------------------------------------|
|--5-5--5--5---------------------------------------|
|--5-5--5--5------6---------8----------------------|  
|--3-3--3--3------6---------8----------------------|
|-----------------6---------8----------------------|



Chorus
2:23
|--------------------------------------------------|
|--------------------------------------------------|
|---------------------------5--5--5--5--5--5--5--5-|
|--3--3--3--3---6--6--6--6--5--5--5--5--5--5--5--5-|  
|--3--3--3--3---6--6--6--6--3--3--3--3--3--3--3--3-|
|--3--3--3--3---6--6--6--6-------------------------|
                                                      x2 
|--------------------------------------------------|
|--------------------------------------------------|
|---------------------------5--5--5--5--8--8--8--8-|
|--3--3--3--3---6--6--6--6--5--5--5--5--8--8--8--8-|  
|--3--3--3--3---6--6--6--6--3--3--3--3--6--6--6--6-|
|--3--3--3--3---6--6--6--6-------------------------|




Breakdown
3:04
|--------------------------------------------------|
|--------------------------------------------------|
|--------------------------------------------------|
|--3-----------------------------------------------|
|--3-----------------------------------------------|
|--3-----------------------------------------------|

Over the top of the held chord
3:06
|----8----6----------/8-------6--------------------|
|------------/9--8-----------------9----8-----8\6--|
|--------------------------------------------------|
|--------------------------------------------------|
|--------------------------------------------------|
|--------------------------------------------------|



|--------------------------------------------------|
|---8-----6~~---------6--6~---8------/6--8--8h9p8--|
|------8-------8----8-------------8----------------|
|--------------------------------------------------|
|--------------------------------------------------|
|--------------------------------------------------|

3:49
|--------------------------------------------------|
|--------------------------------------------------|
|---------------------------5--5--5--5--5--5--5--5-|
|--3--3--3--3---6--6--6--6--5--5--5--5--5--5--5--5-|  
|--3--3--3--3---6--6--6--6--3--3--3--3--3--3--3--3-|
|--3--3--3--3---6--6--6--6-------------------------|
                                                      x2 
|--------------------------------------------------|
|--------------------------------------------------|
|---------------------------5--5--5--5--8--8--8--8-|
|--3--3--3--3---6--6--6--6--5--5--5--5--8--8--8--8-|  
|--3--3--3--3---6--6--6--6--3--3--3--3--6--6--6--6-|
|--3--3--3--3---6--6--6--6-------------------------|




4:30
|--------------------------------------------------|
|--------------------------------------------------|
|--------------------------------------------------|
|--3--3--3--3---3--3--3--3--3--3--3--3--3--3--3--3-|  
|--3--3--3--3---3--3--3--3--3--3--3--3--3--3--3--3-|
|--3--3--3--3---3--3--3--3--3--3--3--3--3--3--3--3-|
   *  *  *  *   *  *  *  *  *  *  *  *  *  *  *  *


4:41
|--------------------------------------------------|
|--------------------------------------------------|
|--------------------------------------------------|
|--3-----------------------------------------------|
|--3-----------------------------------------------|
|--3-----------------------------------------------|





Comments


Popular Bella Morte tabs & chords
Remains Bass Tabs
The Coffin Bass Tabs
On The Edge Tabs
Relics Tabs


Song lyrics



↑ Back to top | Tablatures and chords are parodies/interpretations of the original songs. You may use it for private study, scholarship, research or language learning purposes only
© 2014 AZChords.com Contact us | Privacy policy | DMCA | Add/correct tabs | Request tabs | Top 50 tabs