» » »

Bella Morte, The Coffin Bass tabs (ver.1)

Artists:  A B C D E F G H I J K L M N O P Q R S T U V W X Y Z # 

The Coffin Bass tabs (ver.1)

Bella Morte Tabs
Rating:
0/5 (0 votes)
The Coffin lessons Tabs too difficult? Try these video lessons and learn fast
                
Intro/Verse

G:------------------------------
D:-0-0-2-0-0-0-2-0-0-0-2-0-0-2h3
A:------------------------------
E:------------------------------

G:-------------------------------
D:-------------------------------
A:-0-0-2-0-0-0-2-0-0-0-2-0-0-2\1-
E:-------------------------------

G:-------------------------------
D:-------------------------------
A:-----5-------5-------5-----5/7-
E:-3-3---3-3-3---3-3-3---3-3-----

G:-------------------------------
D:-0-0-3-0-0-0-3-0---------------
A:------------------0-0-0-0------
E:-------------------------------

Repeat these until the chorus where you play this:

G:--------------------------------------------------------------------------------
D:--------------------------------------------------------------------------------
A:--------------------------------------------------------------------------------
E:-1-1-1-1-1-1-1-1-7-7-7-7-7-7-7-7-3-3-3-3-3-3-3-3-5-5-5-5-5-5-5-5-5-5-5-5-5-5-5-5
            

comments powered by Disqus
↑ Back to top | Bella Morte Bass for The Coffin. Lyrics for acoustic guitar and electric guitar. Tablatures and chords are parodies/interpretations of the original songs. You may use it for private study, scholarship, research or language learning purposes only