>
 >
Miedo

Miedo Bass Tabs

Belanova - Miedo chords, tabs, tablatures, lyrics

Guitar lessons | Add/correct | Request | Top 50 tabs Artists:  A B C D E F G H I J K L M N O P Q R S T U V W X Y Z 0-9

Miedo Bass Tabs – Belanova

CD, Sheet music, Poster

Do you like Miedo? Share with your friends now
Bass Tabs
ACORDES:> F#5 A Em

belanova - miedo

aqui esta por fin la tablatura de bajo de belanova tiene muy buen bajo
100% seguro por ser genero funk =)
espero que la guste y saludos a edo y loran boughton(wounded tears),spirit,
la raza del tec de monterrey garza la guera y sinaloa... y a vero =)
atte: zambada (zamby funky) =)



       F#5               A5             Em               F#5
G|-------------|------------------|-----------|-------------------|
D|----4------4-|--------7----7----|---2-----2-|-----4-------4-----|
A|-------------|---------------7--|-----------|---------------4---|
E|-2----2-2----|-5---5---5-5------|-0---0-0---|-2-2---2--2--------|


  AAAA - AAAA - AAAA - AAAA - AAAA

  AAAA - AAAA - AAAA - AAAAA - AAAAA

 F#5
miedo

A5         Em                F#5
te dije bien que no queria estar aqui

 F#5
no tengo tiempo

A5           Em    F#5
yo solo quiero regresar

  F#5
piensa

  A5         Em            F#5
que me molesta que no quieras escuchar


 F#5                A5
que no lo entiendes
Em            F#5
yo solo quiero regresar


       F#               A#             E               F#
G|-------------|------------------|-----------|-------------------|
D|----4------4-|--------7----7----|---2-----2-|-----4-------4-----|
A|-------------|---------------7--|-----------|---------------4---|
E|-2----2-2----|-5---5---5-5------|-0---0-0---|-2-2---2--2--------|


se aumenta el tono en esta parte

G|-----------------------|---------------------|
D|---4--4/7--7---2--2/4--|---4--4/7--7--2--2/4-|
A|-----------------------|---------------------|
E|-----------------------|---------------------|


pero al caminar me encanta tu voca

me invita a bailar

esa voca rosa


G|-------------|------------------|-----------|-------------------|
D|----4------4-|--------7----7----|---2-----2-|-----4-------4-----|
A|-------------|---------------7--|-----------|---------------4---|
E|-2----2-2----|-5---5---5-5------|-0---0-0---|-2-2---2--2--------|



la noche se

mi lavios bailaron

dentros del captel

la luna y tus lavios


  AAAAA - AAAAA - AAAAAA - AAAAAAAA

F#5
miedo

A5         Em                F#5
te dije bien que no queria estar aqui

 F#5
no tengo tiempo

A5           Em    F#5
yo solo quiero regresar

  F#5
piensa

  A5         Em            F#5
que me molesta que no quieras escuchar


 F#5                A5
que no lo entiendes
Em            F#5
yo solo quiero regresar


                se aumenta el tono en esta parte

G|-----------------------|---------------------|
D|---4--4/7--7---2--2/4--|---4--4/7--7--2--2/4-|
A|-----------------------|---------------------|
E|-----------------------|---------------------|





la noche se

mi lavios bailaron

dentros del captel

la luna y tus lavios

       F#               A#             E               F#
G|-------------|------------------|-----------|-------------------|
D|----4------4-|--------7----7----|---2-----2-|-----4-------4-----|
A|-------------|---------------7--|-----------|---------------4---|
E|-2----2-2----|-5---5---5-5------|-0---0-0---|-2-2---2--2--------|




F#5
miedo

A5         Em                F#5
te dije bien que no queria estar aqui

 F#5
no tengo tiempo

A5           Em    F#5
yo solo quiero regresar

  F#5
piensa

  A5         Em            F#5
que me molesta que no quieras escuchar


 F#5                A5
que no lo entiendes
Em            F#5
yo solo quiero regresar





aaaaa - aaaaa - aaaa -aaaaaaa

aaaaaaaaaaaa

aaaaaa - aaaa -  aaaa - aaaaaa

     E A D G B E
F#5 |2|4|4|0|X|X|

A5  |5|7|7|0|X|X|

Em  |0|2|2|0|0|0

 





Comments


Popular Belanova tabs & chords
Hasta El Final Bass Tabs
Baila Mi Corazn Chords
Por Ti Chords
Por Ti 1 Chords
Tus Ojos Chords
Baila Mi Corazn Ukulele
Me Pregunto Ukulele
Nio Ukulele
Rosa Pastel Ukulele
Tus Ojos Ukulele


Song lyrics



↑ Back to top | Tablatures and chords are parodies/interpretations of the original songs. You may use it for private study, scholarship, research or language learning purposes only
© 2014 AZChords.com Contact us | Privacy policy | DMCA | Add/correct tabs | Request tabs | Top 50 tabs